Cifra Club

One Drop

Bob Marley

Tab de baixo: Versão 5
Intro

   C           Dm
G|----------|----------|
D|----------|----------|  (2x)
A|------3-3-|------3-5-| 
E|-3--5-----|-3--5-----|


Verso e Refrão
   C                Am		  Dm                G
G|----------------|-------------|-------------2-5-|-------------|
D|---------2--2-5-|-----------2-|--------3--3-----|-5----5------|
A|--3-3--3--------|------3--3---|-5-5--5----------|----5---7-3--|
E|----------------|-5--5--------|-----------------|-------------| Repete até o final
00:00 / 00:00
Outros vídeos desta música
Repetir
Outros vídeos desta música
Composição de Bob Marley
Colaboração e revisão:
  • Frank Neres
141 exibições

0 comentários

Ver todos os comentários

Conseguiu tocar?

0 Tocaram 0 Ainda não

Grave um vídeo tocando One Drop e nos envie!

Entre para oCifra Club PRO

Tenha acesso a benefícios exclusivos no App e no Site

  • Chega de anúncios

  • Prioridade de compra em lançamentos

  • Mais recursos no app do Afinador

  • Atendimento Prioritário

  • Descontos nos produtos Cifra Club

  • Ajude a produzir mais conteúdo

00:00 / 00:00

Cifra Club Pro

Aproveite o Cifra Club com benefícios exclusivos e sem anúncios
Cifra Club Pro
Aproveite o Cifra Club com benefícios exclusivos e sem anúncios
OK