Cifra Club

Hook Me Up

Bon Jovi

Cifra: Principal (violão e guitarra)
Tom: G
Afinação: DADGBE

Intro 1:
E|------------------|--------------|-----------------|-------------|
B|------------------|--------------|-----------------|-------------|
G|------------------|--------------|-----------------|-------------|
D|-0-0--0--0-0-0-0--|--0-0--0--0-3-|-0-0--0--0-0-0-0-|-0-0--0--0-3-|
A|-0-0--0--0-0-0-0--|--0-0--0--0-3-|-0-0--0--0-0-0-0-|-0-0--0--0-3-|
D|-0-0--0--0-0-0-0--|--0-0--0--0-3-|-0-0--0--0-0-0-0-|-0-0--0--0-3-|

Intro 2:

      D5         F5         C5       G5
E|------------------------------------------------|
B|------------------------------------------------|
G|------------------------------------------------|
D|-0-0--0-0--0-3-3--3-3--3-5--5-5--5-5-5-5--5-5-5-|
A|-0-0--0-0--0-3-3--3-3--3-3--3-3--3-3-5-5--5-5-5-|
D|-0-0--0-0--0-3-3--3-3--3-------------5-5--5-5-5-\

Riff: 

       D                      (and repeating)
E|----------------------------------------------|
B|----------------------------------------------|
G|----------------------------------------------|
D|---5--4-------5-4-------------5---4-----------|
A|----------7-----------7---5------------5------|
D|----------------------------------------------|

(Intro + Riff) 4x

Verso:

Riff    
Hello, is there anybody out there?
D5         F5          C5  G5
I'm alone hanging by a thread

Ponte:

D5                      F5
Everywhere around the world
C5                      G5
Everybody's waiting for someday
D5                      F5
Calling out around the world
C5                      G5
Maybe someday might be tonight

Refrão:

           D5
Hook me up
 F5                       C5    G5
I'm reaching out for you, come on
           D5
Hook me up
  F5                       C5       G5
I know you can do it, come on, take me on

Verso:

D5
Are you there? 
F5           C5        G5
Tell me what you're feeling.
D5          F5             C5      G5
Your fears and all your wildest dreams

Ponte:

D5                  F5
Everyone around the world 
C5                                G5
Is feeling just the same way that we are
D5                      F5
Reaching out around the world
C5                               G5
Will someone somewhere throw me a line?

Refrão:

           D5
Hook me up
 F5                       C5   G5
I'm reaching out for you, come on
           D5
Hook me up
  F5                      C5        G5
I know you can do it, come on, take me on

D5   F5  C5   G5
Save me, save me
D5   F5  C5   G5
Save me, save me

( G5  G#  G5 )

Riff:
Hello, is there anybody out there?

Guitar Solo: D5  F5  C5
             D5  F5  C5

Ponte:

D5                      F5
Calling out around the world
C5                      G5
Maybe someday might be tonite

Refrão:

           D5
Hook me up
 F5                        C5    G5
I'm reaching out for you, come on
           D5
Hook me up
  F5                       C5       G5
I know you can do it, come on, take me on

Refrão:

       D5
Hook me up
 F5                       C5    G5
I'm reaching out for you, come on
       D5
Hook me up
  F5                       C5       G5
I know you can do it, come on, take me on
 D5  F5  C5   G5
Save me, save me
D5   F5  C5
Save me, save...
exibições 7.963
Acordes para:

    0 comentários

    mostrar mais comentários

    Conseguiu tocar?

    1 tocaram 0 ainda não

    Grave um vídeo tocando Hook Me Up e mande pra gente!

    00:00 / 00:00
    outros vídeos desta música
    repetir qualidade Automático
    Outros vídeos desta música
    00:00 / 00:00
    Automático
    OK