Cifra Club

Doce

Boogarins

Cifra: Principal (violão e guitarra)
Selo Cifra Club: esta cifra foi revisada para atender aos critérios oficiais da nossa Equipe de Qualidade.
tom: C#m
[Intro]

E|-2h4-2-0---0-0-0---0-0-----------------0------------|
B|---------4-2-0-0h2-0-0h2-0-2-4p2p0-------0---0-0----|
G|-------------------------------------1-----1-2-1----|
D|----------------------------------------------------| (2x)
A|----------------------------------------------------|
E|----------------------------------------------------|

E|-2h4-2-0---2-0-0-0-0----2h4-0---0-0-0---0-0---------|
B|---------4-0-0-0-4-4----------4-2-0-0h2-0-0h2-0-2-4-|
G|----------------------------------------------------|
D|----------------------------------------------------|
A|----------------------------------------------------|
E|----------------------------------------------------|

E|--------------7-------7-------7---------------------|
B|-4p2p0--------7-------7-------7---------------------|
G|--------------8-------8-------8---------------------|
D|--------------9-------9-------9---------------------|
A|----------------------------------------------------|
E|----------------------------------------------------|

[Primeira Parte]

 C#m
Vou tomar um doce amor
E
 Por que não vem?
C#m
Encostar no por do sol
E
 Prometo além

[Refrão]

                D
Além de onde os outros sempre estão
                   A
Pois o que li nos livros ou na mão
                 B   B4  B
Não pode ser em vão

[Segunda Parte]

 C#m
Vou viver o hoje amor
E
 Contigo ou sem
C#m
Esquecer de toda dor
E
 Que a vida tem

                D
Além de onde os outros sempre estão
                   A
Pois o que li nos livros ou na mão
                 B   B4  B
Não pode ser em vão

[Ponte]

F#m            C#m              F#m
 Vem, mas vem sem pensar em voltar
       C#m
Ou me deixar
      Bm            F#m
Pois no meu voo eu vou

      C#m     F#m
Sem aterrizar
      C#m     F#m
Sem aterrizar

[Solo]

E|----------------------------------12----------------|
B|--9-----------14-14-14-12-9-------------------------|
G|-11b13r11-------------------11b13----13r9-9---------|
D|----------11----------------------------------------|
A|----------------------------------------------------|
E|----------------------------------------------------|

E|-12-12-12--11-11-11---------------------------------|
B|--------------------14-14-14-12-12-12h14-12---------|
G|--------------------------------------------13-11---|
D|----------------------------------------------------|
A|----------------------------------------------------|
E|----------------------------------------------------|

E|-------12-------------------------------------------|
B|-------12-------------------------------------------|
G|-11b13----13r11---9--------9----9b11--14------------|
D|----------------------9b11---11----------14---------|
A|--------------------------------------------16------|
E|----------------------------------------------------|

E|----------------------------------------------------|
B|-17-------17--------14-14-14b16-16-16r14-12---------|
G|----14-------14-----------------------------13-11---|
D|-------16-------------------------------------------|
A|----------------------------------------------------|
E|----------------------------------------------------|

E|-------14-------------------------------------------|
B|-14b16----16r14-------------------------------------|
G|----------------------------------------------------|
D|----------------------------------------------------|
A|----------------------------------------------------|
E|----------------------------------------------------|

[Ponte]

F#m            C#m              F#m
 Vem, mas vem sem pensar em voltar
       C#m
Ou me deixar
      Bm            F#m
Pois no meu voo eu vou

      C#m     F#m
Sem aterrizar
      C#m     F#m
Sem aterrizar

[Final] C#m  F#m 
        C#m  F#m 
        C#m  F#m 
        C#m  F#m 
        C#m  F#m 
        C#m  F#m
Outros vídeos desta música
48.136 exibições
    • ½ Tom
    • Am
    • Bbm
    • Bm
    • Cm
    • C#m
    • Dm
    • Ebm
    • Em
    • Fm
    • F#m
    • Gm
    • G#m
  • Adicionar à lista

Afinação da cifra

Afinador online

    0 comentários

    Ver todos os comentários

    Conseguiu tocar?

    30 Tocaram 1 Ainda não

    Grave um vídeo tocando Doce e nos envie!

    Toque também

    1. Imagem do artista O Terno Volta O Terno
    2. Imagem do artista Carne Doce Eu Te Odeio Carne Doce
    3. Imagem do artista Baleia Sangue do Paraguai Baleia
    4. Imagem do artista Tagore Movido a Vapor Tagore

    Entre para o Cifra Club PRO

    Tenha acesso a benefícios exclusivos no App e no Site

    • Chega de anúncios

    • Mais recursos no app do Afinador

    • Atendimento Prioritário

    • Aumente seu limite de lista

    • Ajude a produzir mais conteúdo

    Cifra Club Pro

    Aproveite o Cifra Club com benefícios exclusivos e sem anúncios
    Cifra Club Pro
    Aproveite o Cifra Club com benefícios exclusivos e sem anúncios
    OK