Cifra Club

Aprenda

Foreplay

Boston

Cifra: Principal (violão e guitarra)
Tom: G#
|--------|--------------------------------------------------------|
|--------|--------------------------------------------------------|
|--------|--------------------------------------------------------|
|--------|-3-5-6-5-3----------5-6-3-8-10---3-5-6---6---6---3------|
|-8-8-8--|-1-3-4-3-1---6-5-3--3-4-1-6--8---1-3-4-6-4-6-4-6-1-3-4--|
|-6-6-6--|-------------4-3-1---------------------4---4---4---1-2--|

|---------------------------------------------------------------|
|---------------------------------------------------------------|
|---------------------------------------------------------------|
|-6-8-10--3-5-6-----3-5-6-----3-5-6-----3-5-6----3-5-6-8-10--3--|  x2
|-4-6--8--1-3-4--6--1-3-4--6--1-3-4--6--1-3-4-6--1-3-4-6--8--1--|
|----------------4---------4---------4--------4-----------------|

|-------------------------|
|-------------------------|
|-------------------------|
|-5-5-5-5-5--5-5-5-5------|
|-3-3-3-3-3--3-3-3-3------|
|-------------------------|
Composição de Tom Scholz
Colaboração e revisão:
  • Darth Hofmann
1.370 exibições
    • ½ Tom
    • A
    • Bb
    • B
    • C
    • Db
    • D
    • Eb
    • E
    • F
    • F#
    • G
    • Ab
  • Adicionar à lista

    0 comentários

    Mostrar mais comentários

    Conseguiu tocar?

    0 Tocaram 0 Ainda não

    Grave um vídeo tocando Foreplay e mande pra gente!

    00:00 / 00:00
    outros vídeos desta música
    repetir qualidade Automático
    Outros vídeos desta música
    00:00 / 00:00
    Automático

    Cifra Club Pro

    Aproveite o Cifra Club com benefícios exclusivos e sem anúncios
    7 dias grátis
    Cifra Club Pro
    Aproveite o Cifra Club com benefícios exclusivos e sem anúncios
    7 dias grátis
    OK