Cifra Club

More Than A Feeling

Boston

Cifra: Completa (violão e guitarra)
tom: G
(intro)
   D                 C           G
E|-------3---2-----------------------|
B|---3-------------------3-----3-----|
G|-----2---2-----------0-----0-----0-|
D|-0---------------------------------|
A|---------------0-2-3-----2---------|
E|-------------------------------3---|

  D                           C           G
I looked uot this morning,and the sun was gone
D                      C       G
Turn on some music,to start my day
  D                    C        G
I lost myself in a familiar song
  D                       Am         Am/G
I closed my eyes,and she slipped away

   Am G           D                   G
E|-----------------------------------------------|
B|-13-12-12h13p12-10---13-12-10h12p10------------|
G|------------------------------------12~~~~~~~~-|
D|-----------------------------------------------|
A|-----------------------------------------------|
E|-----------------------------------------------|
                                      ( G C Em D )

   G5    C5    E5    D5
E|-------------------------|
B|-------------------------|
G|-------5-5---9-9-9-7-7-7-|
D|-5-5-5-5-5---9-9-9-7-7-7-|
A|-5-5-5-3-3---7-7-7-5-5-5-|
E|-3-3-3-------------------|

     G            C        Em          D
It's more than a feeling, (more than a feeling)
       G              C                      Em          D
When I hear that old song they used to play (more than a feeling)
G        C        Em          D
I begin dreaming (more than a feeling)
        G       C           D
'till I see Marianne walk away

Em         A                     G G  G D D9 D
  I see my Marianne walkin' away

   G G   G D   D9  D
E|-3-3---3-2---0---2-|
B|-3-3---3-3---3---3-|
G|-0-0---0-2---2---2-|
D|-0-0---0-0---0---0-|
A|-2-2---------------|
E|-3-3---------------|

 |-(guitarra do fundo)-|
E|---------------------|-------------------------------------|
B|---------3-----3-----|-3~~~~~~~~~~~~~~~~~~~~~~~~~~~~~~~~~~-|
G|-------0-----0-----0-|-------------------------------------|
D|---------------------|-------------------------------------|
A|-0-2-3-----2---------|-------------------------------------|
E|-----------------3---|-------------------------------------|

(solo) D C G

B|-------7--7-8-7h8p7-----8b10-|---8-7--5h7p5---5h7-|
G|-6-7-9--------------9-7------|-7------------7-----|

B|---8--7h8p7--------------------|---7--7-8-7h8p7-----10b12-|
G|-7----------9-7--9b10b9--7-6---|-9--------------9-7-------|
D|-----------------------------7-|

B|-10-8--7h8p7-7-|---8-7--5h7p5---5-|
G|------------9--|-7------------7---|

G|-7/11--9h11p9----------|
D|--------------12-11-12-|

E|-------------17b19-|
B|-14h15p14----------|
G|----------16-------|

   G G   G D   D9  D |==guitarra-do-fundo==| D          C     G  G
E|-3-3---3-2---0---2-|---------------------|-2----------0-----3--3-|
B|-3-3---3-3---3---3-|---------3-----3-----|-3----------1-----3--3-|
G|-0-0---0-2---2---2-|-------0-----0-----0-|-2----------0-----0--0-|
D|-0-0---0-0---0---0-|---------------------|-0----------2-----0--0-|
A|-2-2---------------|-0-2-3-----2---------|------------3-----2--2-|
E|-3-3---------------|-----------------3---|------------------3--3-|
00:00 / 00:00
Outros vídeos desta música
Repetir
Outros vídeos desta música
Composição de T. Scholz / Tom Scholz
Colaboração e revisão:
  • Thyerrí Cruz
  • Herbert Resende
13.869 exibições
    • ½ Tom
    • A
    • Bb
    • B
    • C
    • Db
    • D
    • Eb
    • E
    • F
    • F#
    • G
    • Ab
  • Adicionar à lista

    0 comentários

    Ver todos os comentários

    Conseguiu tocar?

    9 Tocaram 3 Ainda não

    Grave um vídeo tocando More Than A Feeling e nos envie!

    Entre para oCifra Club PRO

    Tenha acesso a benefícios exclusivos no App e no Site

    • Chega de anúncios

    • Prioridade de compra em lançamentos

    • Mais recursos no app do Afinador

    • Atendimento Prioritário

    • Descontos nos produtos Cifra Club

    • Ajude a produzir mais conteúdo

    00:00 / 00:00
    Capítulos
    • Tocando a música
    • Apresentação / Equipamentos
    • Acordes da introdução (violão)
    • Tocando introdução
    • Introdução - violão
    • Introdução - guitarra
    • Dicas primeira parte
    • Tocando primeira parte
    • Primeira parte - violão
    • Primeira parte - guitarra 1 e 2 (riff passagem)
    • Acordes do refrão
    • Tocando refrão
    • Estrutura do refrão
    • Acordes da ponte
    • Tocando ponte
    • Ensinando ponte
    • Dicas interlúdio
    • Tocando interlúdio
    • Interlúdio - violão
    • Interlúdio - guitarra
    • Dicas da música
    • Tocando segunda parte
    • Segunda parte - guitarra 1 (riff passagem)
    • Segunda parte - guitarra 2 (riff passagem)
    • Acordes segundo refrão - ponte
    • Tocando segundo refrão - ponte
    • Ensinando segunda ponte
    • Dicas do solo
    • Tocando solo
    • Solo - Parte 1 de 3
    • Solo - Parte 2 de 3
    • Solo - Parte 3 de 3
    • Solo - Parte 1 de 3 (Guitarra 2)
    • Solo - Parte 2 de 3 (Guitarra 2)
    • Solo - Parte 3 de 3 (Guitarra 2)
    • Dicas finais
    • Tocando terceira parte - final
    • Final - Parte 1 de 4
    • Final - Parte 2 de 4
    • Final - Parte 3 de 4
    • Final - Parte 4 de 4
    • Encerramento

    Cifra Club Pro

    Aproveite o Cifra Club com benefícios exclusivos e sem anúncios
    Cifra Club Pro
    Aproveite o Cifra Club com benefícios exclusivos e sem anúncios
    OK