Cifra Club

More Than A Feeling

Boston

Cifra: Versão 5 (violão e guitarra)
tom: D
Intro & Riff 1:

e|---------3-2-------------------------------------
B|-------3-----2---------3-------3-------3---------
G|-----2------------------0-------0----------------
D|---0---------------------------------------------
A|-----------------0-3-------2-------3-------------
E|-------------------------------------------------

Solo pre-refrão:

e|--7/8-7-8-7-5-8-7-5-3-3------------
B|-----------------------------------
G|-----------------------------------
D|-----------------------------------
A|-----------------------------------
E|-----------------------------------

Refrão:

e|-------------------------------------
B|-------------------------------------
G|-------5-5-5--9-9-9--7-7-7-----------
D|5-5-5--5-5-5--9-9-9--7-7-7-----------
A|5-5-5--3-3-3--7-7-7--5-5-5-----------
E|3-3-3--------------------------------

Riff 2:
*Esse aí eh logo após q o vocal canta:I see my Marianne walkin´ away

e|--------------------------------------
B|--------------------------------------
G|12-11-9-7-----------------------------
A|12-11-9-7-----------------------------
D|10-9--7-5-----------------------------
E|--------------------------------------

*Após isso virá na sequência: introdução, solo pre-refrão e refrão

Riff 3
*Esse tbm eh logo após q o vocal canta:I see my Marianne walkin´ away, e vem antes do solo.

e|------------------------------------------------
B|------------------------------------------------
G|4-4-4-------------------------------------------
D|4-4-4--7-7-7--5-5-5--4-4-4--7-7-7---------------
A|2-2-2--7-7-7--5-5-5--4-4-4--7-7-7---------------
E|-------5-5-5--3-3-3--2-2-2--5-5-5---------------

Solo:

e|----------------|-------------------------|----------------------------|
B|----------------|-------------------------|----------------------------|
G|------------11~-|-11-12-11h12p11-------14-|-11-12-11----------------11-|
D|---11-12-14-----|----------------14-12----|----------14h16p14-12-14----|
A|----------------|-------------------------|----------------------------|
E|----------------|-------------------------|----------------------------|

e|----------------------------------------------|------------------------|
B|----------------------------------------------|------------------------|
G|-11-12-11h12p11---------------------------11~-|11-12-11h12p11-------14^|
D|----------------14-12-14^-14^-12-11----12-----|----------------14-12---|
A|------------------------------------12--------|------------------------|
E|----------------------------------------------|------------------------|

e|----------------------|------------------------------------------------|
B|----------------------|------------------------------------------------|
G|-14-12-11h12p11----11~|-11-12-11-------------------11------------------|
D|----------------14----|----------14h16p14-12-14-12----14h16p14-12-11-12|
A|----------------------|------------------------------------------------|
E|----------------------|------------------------------------------------|

e|-------------------------------------------------------------------------|
B|-14h15pp14p12------------------------------------------------------------|
G|-------------------------------------------------------------------------|
D|-------------------------------------------------------------------------|
A|-------------------------------------------------------------------------|
E|-------------------------------------------------------------------------|

Riff 4 (logo após o solo):

e|--------------------------------------
B|--------------------------------------
G|12-11-9-7-----------------------------
A|12-11-9-7-----------------------------
D|10-9--7-5-----------------------------
E|--------------------------------------

*Depois deste riff volta-se a tocar a introdução.

Riff 5:
*Logo quando vocal cantar:I closed my eyes and I slipped away

e|--------------------------------------
B|--------------------------------------
G|7-7-7--0--4--5-5-5--4-4-4--5----------
D|7-7-7--0--4--5-5-5--4-4-4--5----------
A|5-5-5--0--2--3-3-3--2-2-2--3----------
E|--------------------------------------

Solo pre-refrão:
*Esse jah eh um pouquinho diferente....

e|--7/8-7-8-7-5-5-7-5-8-7-5-3-3------
B|-----------------------------------
G|-----------------------------------
D|-----------------------------------
A|-----------------------------------
E|-----------------------------------

Refrão:

e|-------------------------------------
B|-------------------------------------
G|-------5-5-5--9-9-9--7-7-7-----------
D|5-5-5--5-5-5--9-9-9--7-7-7-----------
A|5-5-5--3-3-3--7-7-7--5-5-5-----------
E|3-3-3--------------------------------

Riff 6:
*Esse eh usado no final da música...

e|--------------------------------------
B|--------------------------------------
G|12-11-9-7-----------------------------
A|12-11-9-7-----------------------------
D|10-9--7-5-----------------------------
E|--------------------------------------
00:00 / 00:00
Outros vídeos desta música
Repetir
Outros vídeos desta música
Composição de T. Scholz / Tom Scholz
9.174 exibições
    • ½ Tom
    • A
    • Bb
    • B
    • C
    • Db
    • D
    • Eb
    • E
    • F
    • F#
    • G
    • Ab
  • Adicionar à lista

    0 comentários

    Ver todos os comentários

    Conseguiu tocar?

    0 Tocaram 0 Ainda não

    Grave um vídeo tocando More Than A Feeling e nos envie!

    Entre para oCifra Club PRO

    Tenha acesso a benefícios exclusivos no App e no Site

    • Chega de anúncios

    • Prioridade de compra em lançamentos

    • Mais recursos no app do Afinador

    • Atendimento Prioritário

    • Descontos nos produtos Cifra Club

    • Ajude a produzir mais conteúdo

    00:00 / 00:00
    Capítulos
    • Tocando a música
    • Apresentação / Equipamentos
    • Acordes da introdução (violão)
    • Tocando introdução
    • Introdução - violão
    • Introdução - guitarra
    • Dicas primeira parte
    • Tocando primeira parte
    • Primeira parte - violão
    • Primeira parte - guitarra 1 e 2 (riff passagem)
    • Acordes do refrão
    • Tocando refrão
    • Estrutura do refrão
    • Acordes da ponte
    • Tocando ponte
    • Ensinando ponte
    • Dicas interlúdio
    • Tocando interlúdio
    • Interlúdio - violão
    • Interlúdio - guitarra
    • Dicas da música
    • Tocando segunda parte
    • Segunda parte - guitarra 1 (riff passagem)
    • Segunda parte - guitarra 2 (riff passagem)
    • Acordes segundo refrão - ponte
    • Tocando segundo refrão - ponte
    • Ensinando segunda ponte
    • Dicas do solo
    • Tocando solo
    • Solo - Parte 1 de 3
    • Solo - Parte 2 de 3
    • Solo - Parte 3 de 3
    • Solo - Parte 1 de 3 (Guitarra 2)
    • Solo - Parte 2 de 3 (Guitarra 2)
    • Solo - Parte 3 de 3 (Guitarra 2)
    • Dicas finais
    • Tocando terceira parte - final
    • Final - Parte 1 de 4
    • Final - Parte 2 de 4
    • Final - Parte 3 de 4
    • Final - Parte 4 de 4
    • Encerramento

    Cifra Club Pro

    Aproveite o Cifra Club com benefícios exclusivos e sem anúncios
    Cifra Club Pro
    Aproveite o Cifra Club com benefícios exclusivos e sem anúncios
    OK