Cifra Club

Smokin

Boston

Cifra: Principal (violão e guitarra)
Tom: G
Intro goes like this:

---------------------|--------------------------------------
---------------------|--------------------------------------
----2----2---2-----2-|--------------------------------------
----2----2-----------|--------------------------------------
-0----0--------3h4---|--------------------------------------
---------------------|--------------------------------------

Verse goes like this:

------------------------------------------------|-----------
------------------------------------------------|-----------
--2--2-4--4-2--2-4--4-2--2-4--4-2-5--Intro lick-|-----------
--0--0-0--0-0--0-0--0-0--0-0--0-0-5-------------|-----------
----------------------------------3-------------|-----------
------------------------------------------------|-----------

The pre-chorus part is:

-----------------------(0)-(0)------------------------------
------------3--3-3-----(0)-(0)--------3---------------------
------------2--2-2--2-----------5--0--2--Intro lick---------
------2--2--0--0-0--2---2---2---5--0--0---------------------
------2--2----------0---2---2---3---------------------------
--3b4-0--0--------------0---0------3------------------------

The chorus goes:                                       1.2.
------------------------------------------------------|-|--|
---------------------------3-3------------------------|-|--|
--4b6b4p2---2-2--4b6b4p2-2-2-2---5-5--7-7\----------2-|2|0-|
----------4-2-2----------0-0-0---5-5--7-7\--2h4p2---2-|2|0-|
------------0-0------------------3-3--5-5\--------3-0-|0|--|
------------------------------------------------------|-|3-|


----|--------------|-------------|--------------------------
--3-|---5--7-------|-------------|--------------------------
--2-|---5--7--vamp-|--intro vamp-|--------------------------
--0-|---5--7-------|-------------|--------------------------
----|---0--0-------|-------------|--------------------------
----|--------------|-------------|--------------------------

------------------------|----------------------|------------
------------------------|----------------------|------------
--2---------------------|-3--2--0--2--3--2-0-2-|------------
--2---------------------|-3--2--0--2--3--2-0-2-|------------
--0---0--0-0--0-0-0-0-0-|-1--0-----0--1--0---0-|------------
------------------------|-------3----------3---|------------

--------------------------------|------------|------------|-
--------------------------------|------------|------------|-
--0-----------------2-----------|-intro vamp-|-verse vamp-|-
--0--3--------------2-----------|------------|------------|-
-----3-----5--3--1--0--2.....-0-|------------|------------|-
--3--1--0-----------------------|------------|------------|-
exibições 2.911
Acordes para:
    Composição: B. Delp / Brad Delp / T. Scholz / Tom Scholz Colaboração e revisão:
    • Darth Hofmann

    0 comentários

    mostrar mais comentários

    Conseguiu tocar?

    1 tocaram 0 ainda não

    Grave um vídeo tocando Smokin e mande pra gente!

    00:00 / 00:00
    outros vídeos desta música
    repetir qualidade Automático
    Outros vídeos desta música
    00:00 / 00:00
    Automático
    OK