Cifra Club

Manthem

Bouncing Souls

Cifra: Principal (violão e guitarra)
Selo Cifra Club: esta cifra foi revisada para atender aos critérios oficiais da nossa Equipe de Qualidade.
tom: D
Legenda: h   hammer on 
 
        
Intro 
 
Guita 1 
 
e|------------------------------------|_ 
B|------------------------------------| \ 
G|-7h8-8-8-8-8-8-8-8-8-8-8-8-8-8-8-8--| | 
D|------------------------------------| |--duas vezes 
A|------------------------------------| | 
E|------------------------------------|_/ 
 
Dpois da guita um ter tocado u riff acima uma vez, a a guita dois entra com isso: 
 
e|------------------|_ 
B|------------------| \ 
G|-7----------------| | 
D|-7------5------7--| |--duas vezes 
A|-5------5------7--| | 
E|--------3------5--|_/ 
 
 
Verso 
 
e|------------------------------------|_ 
B|------------------------------------| \ 
G|-7-7-7-7----------------------------| | 
D|-7-7-7-7-5-5-5-5-7-7-7-7-7-7-7-7----| |--duas vezes 
A|-5-5-5-5-5-5-5-5-7-7-7-7-7-7-7-7----| | 
E|---------3-3-3-3-5-5-5-5-5-5-5-5----|_/ 
 
e|-----------------------------------------------------------------| 
B|-----------------------------------------------------------------| 
G|-7-7-7-7---------7-7-7-7---------7-7-7-7-------------------------| 
D|-7-7-7-7-5-5-5-5-7-7-7-7-7-7-7-7-7-7-7-7-5-5-5-5-7-7-7-7-7-7-7-7-| 
A|-5-5-5-5-5-5-5-5-5-5-5-5-7-7-7-7-5-5-5-5-5-5-5-5-7-7-7-7-7-7-7-7-| 
E|---------3-3-3-3---------5-5-5-5---------3-3-3-3-5-5-5-5-5-5-5-5-| 
 
Intro 
 
Verso 
 
Intro 
 
Refrão 
 
e|------------------------------------|--------------| 
B|------------------------------------|--------------| 
G|-7-7-7-7----------------------------|-7------------| 
D|-7-7-7-7-5-5-5-5-7-7-7-7-7-7-7-7----|-7----5----7--| 
A|-5-5-5-5-5-5-5-5-7-7-7-7-7-7-7-7----|-5----5----7--| 
E|---------3-3-3-3-5-5-5-5-5-5-5-5----|------3----5--| 
  |_________________________________|  |____________| 
                  3x                         2x 
 
Verso 
 
Intro ( 100 a primeira guita ) 
 
Refrão 
 
Outro 
 
e|---------------------------------| 
B|---------------------------------| 
G|-7-7-7-7-------------------------| 
D|-7-7-7-7-5-5-5-5-7-7-7-7-7-7-7-7-| 
A|-5-5-5-5-5-5-5-5-7-7-7-7-7-7-7-7-| 
E|---------3-3-3-3-5-5-5-5-5-5-5-5-| 
 
Daí vc tok a intro dnovu
Outros vídeos desta música
    1.406 exibições
      • ½ Tom
      • A
      • Bb
      • B
      • C
      • Db
      • D
      • Eb
      • E
      • F
      • F#
      • G
      • Ab
    • Adicionar à lista

    Afinação da cifra

    Afinador online

      0 comentários

      Ver todos os comentários

      Entre para o Cifra Club PRO

      Tenha acesso a benefícios exclusivos no App e no Site

      • Chega de anúncios

      • Mais recursos no app do Afinador

      • Atendimento Prioritário

      • Aumente seu limite de lista

      • Ajude a produzir mais conteúdo

      Cifra Club Pro

      Aproveite o Cifra Club com benefícios exclusivos e sem anúncios
      Cifra Club Pro
      Aproveite o Cifra Club com benefícios exclusivos e sem anúncios
      OK