Cifra Club

All´s Systems Go

Box Car Racer

Cifra: Principal (violão e guitarra)
Tom: C
[Intro]

E|------------------------------------------------
B|------------------------------------------------
G|------------------------------------------------
D|-7-7-7-7~~~~--7-7-7~~~~--7-7-7-7-7-7-7-7--------  2x
A|-0-0-0-0~~~~--0-0-0~~~~--0-0-0-0-0-0-0-0--------
E|------------------------------------------------

E|------------------------------------------------
B|------------------------------------------------
G|------------------------------------------------
D|---------6-6-6----------------------------------  4x
A|-7-7-7---4-4-4---6-6-6---7-7-7---6-6-2-2--------
E|-5-5-5-----------4-4-4---5-5-5---4-4-0-0--------

Riff 01
E|------------------------------------------------
B|------------------------------------------------
G|------------------------------------------------
D|-7-7-7-7-7-7-7-7---7-7-7-7-7-7-7-7--------------
A|-0-0-0-0-0-0-0-0---0-0-0-0-0-0-0-0--------------
E|------------------------------------------------
                                                    4x
E|------------------------------------------------
B|------------------------------------------------
G|------------------------------------------------
D|-11-11-11-11-11----4-4-4-4-6-6-6-6--------------
A|-x-x-x-x-x-x-x-----x-x-x-x-x-x-x-x--------------
E|-9-9-9-9-9-9-9--0--2-2-2-2-4-4-4-4--------------

I left my fair behind me
Of those lights out by the station
The government is lying
The youth they won't believe them

[Refrão]

    C5   G/B   A5   F5
E|----------------------------
B|----------------------------
G|-5-----4----2---------------
D|-5-----5----2----3----------
A|-3-----2----0----3----------
E|-----------------1----------

C5          G/B
we can't go wrong can't get
A5              F5
fucked this time
C5          G/B
speak up now loose or get
A5           F5
left behind

[Intro]

E|------------------------------------------------
B|------------------------------------------------
G|------------------------------------------------
D|-7-7-7-7~~~~--7-7-7~~~~--7-7-7-7-7-7-7-7--------  1x
A|-0-0-0-0~~~~--0-0-0~~~~--0-0-0-0-0-0-0-0--------
E|------------------------------------------------

E|------------------------------------------------
B|------------------------------------------------
G|------------------------------------------------
D|---------6-6-6----------------------------------  2x
A|-7-7-7---4-4-4---6-6-6---7-7-7---6-6-2-2--------
E|-5-5-5-----------4-4-4---5-5-5---4-4-0-0--------

Riff 01
E|------------------------------------------------
B|------------------------------------------------
G|------------------------------------------------
D|-7-7-7-7-7-7-7-7---7-7-7-7-7-7-7-7--------------
A|-0-0-0-0-0-0-0-0---0-0-0-0-0-0-0-0--------------
E|------------------------------------------------
                                                    4x
E|------------------------------------------------
B|------------------------------------------------
G|------------------------------------------------
D|-11-11-11-11-11----4-4-4-4-6-6-6-6--------------
A|-x-x-x-x-x-x-x-----x-x-x-x-x-x-x-x--------------
E|-9-9-9-9-9-9-9--0--2-2-2-2-4-4-4-4--------------

When will this be over
This cold and bitter season    
The government is lying
The truth is found with reason  

E|------------------------------------------------
B|------------------------------------------------
G|------------------------------------------------
D|-7-7-7-7~~~~--7-7-7~~~~--7-7-7-7-7-7-7-7--------  
A|-0-0-0-0~~~~--0-0-0~~~~--0-0-0-0-0-0-0-0--------
E|------------------------------------------------

C5          G/B
we can't go wrong can't get
A5              F5
fucked this time
C5          G/B
speak up now loose or get
A5           F5
left behind

     A5
E|------------------------------------------------
B|------------------------------------------------
G|------------------------------------------------
D|-7-7-7-7-7-7-7-7--------------------------------
A|-0-0-0-0-0-0-0-0--------------------------------
E|------------------------------------------------
                                                     
     E5
E|------------------------------------------------
B|------------------------------------------------
G|------------------------------------------------
D|------------------------------------------------
A|-2-2-2-2-2-2-2-2~~~~~~--------------------------
E|-0-0-0-0-0-0-0-0~~~~~~--------------------------

C5          G/B
we can't go wrong can't get
A5              F5
fucked this time
C5          G/B
speak up now loose or get
A5              F5
left behind

C5          G/B       A5
we are the underrated all forgotten
F5
kids who made it
C5          G/B
speak up now loose or get
A5          F5
left behind

[Final]

E|------------------------------------------------
B|------------------------------------------------
G|------------------------------------------------
D|---------6-6-6----------------------------------  3x
A|-7-7-7---4-4-4---6-6-6---7-7-7---6-6-2-2--------
E|-5-5-5-----------4-4-4---5-5-5---4-4-0-0--------

E|------------------------------------------------
B|------------------------------------------------
G|------------------------------------------------
D|---------6-6-6----------------------------------  
A|-7-7-7---4-4-4---6-6-6-6s7~~~~~~----------------
E|-5-5-5-----------4-4-4-4s5~~~~~~----------------
exibições 9.234
Acordes para:
    Colaboração e revisão:
    • Renan Luiz
    • paulo pereira

    0 comentários

    mostrar mais comentários

    Conseguiu tocar?

    0 tocaram 0 ainda não

    Grave um vídeo tocando All´s Systems Go e mande pra gente!

    00:00 / 00:00
    outros vídeos desta música
    repetir qualidade Automático
    Outros vídeos desta música
    00:00 / 00:00
    Automático
    OK