Cifra Club

And I

Box Car Racer

Cifra: Principal (violão e guitarra)
Tom: G
Versão 1
-======-

Intro
e|---------------------------------------------------------------------------|
B|---------------------------------------------------------------------------|
G|---------------------------------------------------------------------------|
D|---------------------------------------------------------------------------|
A|99999999999999-5/7--5--9--5-7--9-------------------------------------------|
E|---------------------------------------------------------------------------|
2 Vezes

e|---------------------------------------------------------------------------|
B|---------------------------------------------------------------------------|
G|---------------------------------------------------------------------------|
D|---------------------------------------------------------------------------|
A|99999999999999-5/7--5--9--5-7--555555555555555...--------------------------|
E|---------------------------------------------------------------------------|
D    A             G  
 I am lost in the crowd 
                 A
I'm standing in line 
                D
I'm feeling so down 
                  A
and I am full of doubt 
             G           A     
she's not the one that noticed 
        D
hear me out 
    D E   A         G 
and I   want her, need her
     D E             A     G
and you always will pull me through 

e|---------------------------------------------------------------------------|
B|---------------------------------------------------------------------------|
G|---------------------------------------------------------------------------|
D|---------------------------------------------------------------------------|
A|--555555555555555...-------------------------------------------------------|
E|---------------------------------------------------------------------------|
D         A
 I'm tired 
               G         
this games so dumb 
               A             D
she never played, her races won 
          A
I'm tired 
                  G
can't smile no more 
            A                  D
I've sure caved in just like before 

    D E   A         G 
and I   want her, need her
     D E             A     G
and you always will pull me through 
    D E   A         G 
and I   want her, need her
     D E             A     G
and you always will pull me through 
     D E   A         G 
and I   want her, need her
     D E             A     G
and you always will pull me through 
    D E   A         G 
and I   want her, need her
     D E             A     G
and you always will pull me through 
     D 
and I want her, need her 
     D  
and I   want her, need her
     D  
and I   want her, need her
     D            D
and I, and I, and I 


_______________________________________________________







Versão 2
-======-

Intro
e|---------------------------------------------------------------------------|
B|---------------------------------------------------------------------------|
G|11111111111111111-7777777/999/777/111111/7777------------------------------|
D|xxxxxxxxxxxxxxxx--xxxxxxx/xxx/xxx/xxxxxx/xxxx------------------------------|
A|9999999999999999--5555555/777/555/99999-/5555------------------------------|
E|---------------------------------------------------------------------------|

Chorus 00:27
e|----------------------------------------------------------------------|----|
B|----------------------------------------------------------------------|----|
G|7777777777777777-------------------7777777777777777-------------------|7~--|
D|7777777777777777-99999999-55555555-7777777777777777-99999999-55555555-|7~--|
A|5555555555555555-99999999-55555555-5555555555555555-99999999-55555555-|5~--|
E|-----------------77777777-33333333------------------77777777-33333333-|----|

Verse
e|---------------------------------------------------------------------------|
B|---------------------------------------------------------------------------|
G|7777777777777777777777777777777777777777777777777777777777777777-----------|
D|xxxxxxxxxxxxxxxxxxxxxxxxxxxxxxxxxxxxxxxxxxxxxxxxxxxxxxxxxxxxxxxx-----------|
A|5555555555555555555555555555555555555555555555555555555555555555-----------|
E|---------------------------------------------------------------------------|

Interlude
e|---------------------------------------------------------------------------|
B|---------------------------------------------------------------------------|
G|-77-7-777-99-9-999---------------------------------------------------------|
D|-77-7-777-99-9-999-99-9-999-55-5-555---------------------------------------|
A|-55-5-555-77-7-777-99-9-999-55-5-555---------------------------------------|
E|-------------------77-7-777-33-3-333---------------------------------------|


Chorus 2:
e|---------------------------------------------------------------------------|
B|---------------------------------------------------------------------------|
G|7777777777777777777777777777777777777777777777777777777777777777-----------|
D|xxxxxxxxxxxxxxxxxxxxxxxxxxxxxxxxxxxxxxxxxxxxxxxxxxxxxxxxxxxxxxxx-----------|
A|5555555555555555555555555555555555555555555555555555555555555555-----------|
E|---------------------------------------------------------------------------|
exibições 12.559
Acordes para:

    0 comentários

    mostrar mais comentários

    Conseguiu tocar?

    0 tocaram 0 ainda não

    Grave um vídeo tocando And I e mande pra gente!

    00:00 / 00:00
    outros vídeos desta música
    repetir qualidade Automático
    Outros vídeos desta música
    00:00 / 00:00
    Automático
    OK