Cifra Club

Cat Like Thief

Box Car Racer

Cifra: Principal (violão e guitarra)
Tom: A
Guitar 1
Verse: Repeat this through the song

e:------------------------------------------------|
B:------------------------------------------------|
G:------------------------------------------------|
D:------7----7-----7----7-----7----7----7----7----|
A:---00---00----44---44----55---55---55---55------|
E:------------------------------------------------|

Guitar 2:

e|---------------------------------------------|
B|---------------------------------------------|
G|-----------66666666--7777777777777777--------|
D|-77777777--xxxxxxxx--xxxxxxxxxxxxxxxx--------|
A|-77777777--44444444--5555555555555555--------|
E|-55555555------------------------------------|

Outro:

e:--------------------------------------------------------------------|
B:------------16----------16----13/12--13/12--13/12--13/12------------|
G:----13--13------13--13----------------------------------------------|
D:--------------------------------------------------------------------|
A:--------------------------------------------------------------------|
E:--------------------------------------------------------------------|
exibições 8.894
Acordes para:

    0 comentários

    mostrar mais comentários

    Conseguiu tocar?

    1 tocaram 0 ainda não

    Grave um vídeo tocando Cat Like Thief e mande pra gente!

    00:00 / 00:00
    outros vídeos desta música
    repetir qualidade Automático
    Outros vídeos desta música
    00:00 / 00:00
    Automático
    OK