Cifra Club

Dance With Me

Box Car Racer

Cifra: Principal (violão e guitarra)
Tom: A
INTRO
e|-------------------------------|
B|-------------------------------|
G|-------------------------------|   3X
D|---7-7-7-7-7-7-7-7-----9-9-9-9-|
A|---5-5-5-5-5-5-5-5-----7-7-7-7-|
E|---5-5-5-5-5-5-5-5-----7-7-7-7-|
em sequência faça isso
e|-------------------------------|
B|-------------------------------|
G|-------------------------------|   1X
D|---7-7-7-7-7-7-7-7-----7-7-7-7-|
A|---5-5-5-5-5-5-5-5-----6-6-6-6-|
E|---5-5-5-5-5-5-5-5-----4-4-4-4-|

VERSO
e|-------------------------------|
B|-------------------------------|
G|-------------------------------|
D|---7-7-7-7-7-7-7-7-----9-9-9-9-|
A|---5-5-5-5-5-5-5-5-----7-7-7-7-|
E|---5-5-5-5-5-5-5-5-----7-7-7-7-|

e|-------------------------------|
B|-------------------------------|
G|-------------------------------|
D|---7-7-7-7-7-7-7-7-----7-7-7-7-|
A|---5-5-5-5-5-5-5-5-----6-6-6-6-|
E|---5-5-5-5-5-5-5-5-----4-4-4-4-|

PONTE 1
(SÓ NO BAIXO)

VERSO
e|-------------------------------|
B|-------------------------------|
G|-------------------------------|
D|---7-7-7-7-7-7-7-7-----9-9-9-9-|
A|---5-5-5-5-5-5-5-5-----7-7-7-7-|
E|---5-5-5-5-5-5-5-5-----7-7-7-7-|

e|-------------------------------|
B|-------------------------------|
G|-------------------------------|
D|---7-7-7-7-7-7-7-7-----7-7-7-7-|
A|---5-5-5-5-5-5-5-5-----6-6-6-6-|
E|---5-5-5-5-5-5-5-5-----4-4-4-4-|

PONTE 2
e|-------------------------------|
B|-------------------------------|
G|-------------------------------|  2X
D|---4-4-4-4---6-6-6-6---7-7-7-7-|(deixe soar o A)
A|---4-4-4-4---6-6-6-6---7-7-7-7-|
E|---2-2-2-2---4-4-4-4---5-5-5-5-|

VERSO
e|-------------------------------|
B|-------------------------------|
G|-------------------------------|
D|---7-7-7-7-7-7-7-7-----9-9-9-9-|
A|---5-5-5-5-5-5-5-5-----7-7-7-7-|
E|---5-5-5-5-5-5-5-5-----7-7-7-7-|

e|-------------------------------|
B|-------------------------------|
G|-------------------------------|
D|---7-7-7-7-7-7-7-7-----7-7-7-7-|
A|---5-5-5-5-5-5-5-5-----6-6-6-6-|
E|---5-5-5-5-5-5-5-5-----4-4-4-4-|

ORDEM:

INTRO
VERSO
PONTE 1 (feita só no baixo)
PONTE 2
VERSO

LETRA:

VERSO
Last stop on the bullet train
Need time to feel it out
This I'll make her scream
So what do I do right now
Give up and let it go

Need time to take it in
Lean back and breathe me out
Hell yeah, do that again
So what do I do right now
Give up and let it go

Just like the other day
Need time to ride it out
Not going back again
So what do I do right now
Give up and let it go

Last stop on the bullet train
Need time to feel it out
This time I'll make her scream
So what do I do right now
Give up and let it out go

Need time to take it in
Lean back and breathe me out
Hell yeah, do that again
So what do I do right now
Give up and let it out

Just the other day
Need time to ride it out
Not going back again 
So what do I do right now
Give up and let it out 

Just like the other day
Need time to rock it out
Not going back again
So what do I do right now
Just give up and let it out

PONTE 1
Give me, give me some more
Give me, give me some more
Give me, give me some more

VERSO
Just like the other day
Need time to ride it out
Not going back again
So what do I do right now
Just give up and let it out go

Just like you want to do
Me lying there over you
Lean back and take me in
So what do I do right now
Just give up and let it out

PONTE 2

Just like the other day
Need time to ride it out
Not going back again
So what do I do right now
Just give up and let it out go

Just like the other day
Take time to rock it out
Not going back again
So what do I do right now
Just give me all or nothing
exibições 2.278
Acordes para:
    Colaboração e revisão:
    • Alexandre Tadeu

    0 comentários

    mostrar mais comentários

    Conseguiu tocar?

    0 tocaram 0 ainda não

    Grave um vídeo tocando Dance With Me e mande pra gente!

    00:00 / 00:00
    outros vídeos desta música
    repetir qualidade Automático
    Outros vídeos desta música
    00:00 / 00:00
    Automático
    OK