Cifra Club

Mandy

Box Car Racer

Cifra: Principal (violão e guitarra)
Tom: B
INTRO RIFF:
e|-----------------|
B|-----------------|
G|-----------------|
D|-----------------|
A|--22-4^6-2-2-222-|
E|-0--0------------|

VERSO:
e|------------------------------------|
B|------------------------------------|
G|-4-4-4-4--4-4-4-4-------------------|
D|-4-4-4-4--4-4-4-4--4-4-4-4--4-4-4-4-|
A|-2-2-2-2--2-2-2-2--4-4-4-4--4-4-4-4-|
E|-------------------2-2-2-2--2-2-2-2-|

REFRÃO:
e|------------------|
B|------------------|
G|-4--------------4-|
D|-4-6-2-4--4-2-4-4-|
A|-2-6-2-4--4-2-4-2-|
E|---4-0-2--2-0-2---|

PONTE PARTE 1:
e|-------------------------|
B|-------------------------|
G|-8888-8888-9999-9999-6---|
D|-xxxx-xxxx-xxxx-xxxx---8-|
A|-6666-6666-7777-7777-----|
E|-------------------------|

PONTE PARTE 2:
e|------------------------------------|
B|------------------------------------|
G|-4-4-4-4--4-4-4-4--3-3-3-3--3-3-3-3-|
D|-4-4-4-4--4-4-4-4--3-3-3-3--3-3-3-3-|
A|-2-2-2-2--2-2-2-2--1-1-1-1--1-1-1-1-|
E|------------------------------------|

OUTRO:
e|------------------|
B|------------------|
G|-6--------------6-|
D|-6-8-4-6--6-4-6-6-|
A|-4-8-4-6--6-4-6-4-|
E|---6-2-4--4-2-4---|
(segure o último acorde na última vez)

ORDEM:
**********
intro riff (4x)
verso (2x)
refrão (2x)
intro riff (4x)
verso (2x)
refrão (4x)
ponte pt 1 (4x)
ponte pt 2 (1x)
refrão (4x)
outro (4x)

LETRA:
******

VERSO 1
i remember all my life
rainin' down as cold as ice
shadows of a man
a face through a window
cryin' in the night
the night goes to mornin'

just another day
happy people pass my way
lookin' in their eyes
and i see a memory
i never realized 
how happy you made me

RERÃO
oh mandy
well you came and you left without takin'
i sent you away, oh mandy
well, you kissed me and stopped me from shakin'
i sent you away

VERSO 2
standin' on the edge of time
i walked away when love was mine
caught up in a world of uphill climbin'
tears in my eyes
nothin's rhymin'

just another day
happy people pass my way
lookin' in their eyes
i see a memory
i never realized 
how happy you made me

REFRÃO (2x)

PONTE
yesterday's a dream
i face the mornin'
cryin' on a breeze
yhe pain is callin', oh mandy ..... oh mandy

REFRÃO (3x)

oh mandy ... woah
oh mandy ... woah
oh mandy
exibições 2.743
Acordes para:
    Colaboração e revisão:
    • Alexandre Tadeu

    0 comentários

    mostrar mais comentários

    Conseguiu tocar?

    0 tocaram 0 ainda não

    Grave um vídeo tocando Mandy e mande pra gente!

    00:00 / 00:00
    outros vídeos desta música
    repetir qualidade Automático
    Outros vídeos desta música
    00:00 / 00:00
    Automático
    OK