Cifra Club

Aprenda

Sorrow

Box Car Racer

Cifra: Principal (violão e guitarra)
Tom: A
[Introdução]

Riff 01

E|------------------------------------|
B|------------------------------------|
G|------------------------------------|
D|--------2-----0---------------------|    (8x)
A|-5-4-0-----0-----4~~~~~~~~~~--------|
E|------------------------------------|

Base: A5  /  E5  /  D5


[Verso 01]

E|---------------------------------------------------------------------------------------|
B|---------------------------------------------------------------------------------------|
G|---------------------------------------------------------------------------------------|
D|-7-7--7-7--7-7--7-7----6-6--6-6--6-6--6-6----4-4--4-4--4-4--4-4----6-6--6-6--6-6--6-6--|
A|-0-0--0-0--0-0--0-0----x-x--x-x--x-x--x-x----x-x--x-x--x-x--x-x----x-x--x-x--x-x--x-x--|
E|-----------------------4-4--4-4--4-4--4-4----2-2--2-2--2-2--2-2----4-4--4-4--4-4--4-4--|

          A    G#  F#
Because I need you more
G#
Than you need me
          A    G#  F#
Because I want you more
   G#
I know


[Riff 01]

E|------------------------------------|
B|------------------------------------|
G|------------------------------------|
D|--------2-----0---------------------|    (6x)
A|-5-4-0-----0-----4~~~~~~~~~~--------|
E|------------------------------------|

Base: A5  /  E5  /  D5


[Verso 02]

E|---------------------------------------------------------------------------------------|
B|---------------------------------------------------------------------------------------|
G|---------------------------------------------------------------------------------------|
D|-7-7--7-7--7-7--7-7----6-6--6-6--6-6--6-6----4-4--4-4--4-4--4-4----6-6--6-6--6-6--6-6--|
A|-0-0--0-0--0-0--0-0----x-x--x-x--x-x--x-x----x-x--x-x--x-x--x-x----x-x--x-x--x-x--x-x--|
E|-----------------------4-4--4-4--4-4--4-4----2-2--2-2--2-2--2-2----4-4--4-4--4-4--4-4--|

           A    G#
Because we move
            F#   G#
Too fucking fast
                 A
I think I really had to
G#                F#
Wish to make this last
   G#
I know


[Refrão]

E|---------------------------------------------------------------------------------------|
B|---------------------------------------------------------------------------------------|
G|---------------------------------------------------------------------------------------|
D|-7-7--7-7--7-7--7-7----6-6--6-6--6-6--6-6----4-4--4-4--4-4--4-4----6-6--6-6--6-6--6-6--|
A|-7-7--7-7--7-7--7-7----7-7--7-7--7-7--7-7----4-4--4-4--4-4--4-4----7-7--7-7--7-7--7-7--|
E|-5-5--5-5--5-5--5-5----4-4--4-4--4-4--4-4----2-2--2-2--2-2--2-2----4-4--4-4--4-4--4-4--|

A5   E/G#
I'm sorry
F#5       E/G#
Please forgive me
  A5   E/G#
Believe me
F#5    E/G#
If you would



[Riff 01]

E|------------------------------------|
B|------------------------------------|
G|------------------------------------|
D|--------2-----0---------------------|    (6x)
A|-5-4-0-----0-----4~~~~~~~~~~--------|
E|------------------------------------|

Base: A5  /  E5  /  D5


[Verso 03]

E|---------------------------------------------------------------------------------------|
B|---------------------------------------------------------------------------------------|
G|---------------------------------------------------------------------------------------|
D|-7-7--7-7--7-7--7-7----6-6--6-6--6-6--6-6----4-4--4-4--4-4--4-4----6-6--6-6--6-6--6-6--|
A|-0-0--0-0--0-0--0-0----x-x--x-x--x-x--x-x----x-x--x-x--x-x--x-x----x-x--x-x--x-x--x-x--|
E|-----------------------4-4--4-4--4-4--4-4----2-2--2-2--2-2--2-2----4-4--4-4--4-4--4-4--|

          A
Because i cared
G#  F#   G#
Way more
                 A
Because i really felt that
G#               F#
you felt so much more
   G#
I know


[Refrão]

E|---------------------------------------------------------------------------------------|
B|---------------------------------------------------------------------------------------|
G|---------------------------------------------------------------------------------------|
D|-7-7--7-7--7-7--7-7----6-6--6-6--6-6--6-6----4-4--4-4--4-4--4-4----6-6--6-6--6-6--6-6--|
A|-7-7--7-7--7-7--7-7----7-7--7-7--7-7--7-7----4-4--4-4--4-4--4-4----7-7--7-7--7-7--7-7--|
E|-5-5--5-5--5-5--5-5----4-4--4-4--4-4--4-4----2-2--2-2--2-2--2-2----4-4--4-4--4-4--4-4--|

A5   E/G#
I'm sorry
F#5       E/G#
Please forgive me
  A5   E/G#
Believe me
F#5    E/G#
If you would

A5   E/G#
I'm sorry
F#5       E/G#
Please forgive me
  A5   E/G#
Believe me
F#5    E/G#
If you could


[Interlúdio]


E|-----------------------------------------------------|
B|---2------2------2------2------2---2---2---2-3-2-----|
G|-2---2--2---2--2---2--2---2--2---2---2---2-------2---|
D|-----------------------------------------------------|
A|-----------------------------------------------------|
E|-----------------------------------------------------|

E|-----------------------------------------------------|
B|---2------2------2------2------2---2---2---2-3-2-----|
G|-2---2--2---2--2---2--2---2--2---2---2---2-------2---|
D|-----------------------------------------------------|
A|-----------------------------------------------------|
E|-----------------------------------------------------|

E|-----------------------------------------------------|
B|---2----2-3-2--------2----2-3-2--------2----2-3-2----|
G|-2---2--------2----2---2--------2----2---2--------2--|
D|-----------------------------------------------------|
A|-----------------------------------------------------|
E|-----------------------------------------------------|

E|-----------------------------------------------------|
B|---2----2-3-2--------2----2-3-2--------2----2-3-2----|
G|-2---2--------2----2---2--------2----2---2--------2--|
D|-----------------------------------------------------|
A|-----------------------------------------------------|
E|-----------------------------------------------------|

Base: A5 / E5 / D5

      A5 / E5 / D5

    A/C# / D5 / A5 / B5

    A/C# / D5 / A5 / B5



[Refrão]

E|---------------------------------------------------------------------------------------|
B|---------------------------------------------------------------------------------------|
G|---------------------------------------------------------------------------------------|
D|-7-7--7-7--7-7--7-7----6-6--6-6--6-6--6-6----4-4--4-4--4-4--4-4----6-6--6-6--6-6--6-6--|
A|-7-7--7-7--7-7--7-7----7-7--7-7--7-7--7-7----4-4--4-4--4-4--4-4----7-7--7-7--7-7--7-7--|
E|-5-5--5-5--5-5--5-5----4-4--4-4--4-4--4-4----2-2--2-2--2-2--2-2----4-4--4-4--4-4--4-4--|

A5   E/G#
I'm sorry
F#5       E/G#
Please forgive me
  A5   E/G#
Believe me
F#5    E/G#
If you would

A5   E/G#
I'm sorry
F#5       E/G#
Please forgive me
  A5   E/G#
Believe me
F#5    E/G#  A5
If you could

If you could
Composição de Tom DeLonge / Travis Barker
Colaboração e revisão:
  • Renan Luiz
  • Marcel Rovaris
  • Gabriel Santos
13.094 exibições
    • ½ Tom
    • A
    • Bb
    • B
    • C
    • Db
    • D
    • Eb
    • E
    • F
    • F#
    • G
    • Ab
  • Adicionar à lista

    0 comentários

    Mostrar mais comentários

    Conseguiu tocar?

    2 Tocaram 0 Ainda não

    Grave um vídeo tocando Sorrow e mande pra gente!

    00:00 / 00:00
    outros vídeos desta música
    repetir qualidade Automático
    Outros vídeos desta música
    00:00 / 00:00
    Automático

    Cifra Club Pro

    Aproveite o Cifra Club com benefícios exclusivos e sem anúncios
    7 dias grátis
    Cifra Club Pro
    Aproveite o Cifra Club com benefícios exclusivos e sem anúncios
    7 dias grátis
    OK