Cifra Club

Tiny Voices

Box Car Racer

Cifra: Principal (violão e guitarra)
Tom: E
[Intro]

E|--------------------------------------------|
B|---------------------9-9-9------------------|
G|---------------------x-x-x--7-7-7--6-6------|
D|-7~~---7-7-7-7-7-7---6-6-6--x-x-x--x-x------|  4x
A|-0~~---0-0-0-0-0-0----------5-5-5--4-4------|
E|--------------------------------------------|

Riff
E|--------------------------------------------|
B|--------------------------------------------|
G|--------------------------------------------|
D|-7-7-7-7-7-7-7-7-7-7-7-7-7-7~~--------------|
A|-0-0-0-0-0-0-0-0-0-0-0-0-0-0~~--------------|
E|--------------------------------------------|

A5
I've been all pinched up since saturday
I've run my self dry of excellence
16 long years in-hale the bullshit in
Whatever i said on saturday
Whatever i did i'll do it all again
19 marks up walls
Each year one short fall of

[Refrão]

E|--------------------------------------------|
B|--------------------------------------------|
G|---------8----------------------------------|
D|---------x----------6------7----------------|
A|-2---2---6---2------x------x----------------|
E|-0---0-------0------4------5----------------|

E5   B/D# E5    G#5  A5
Tiny voi--ces
E5           B/D# E5    G#5  A5
make things  har---der

   Harmônico e P.M ............
E|--------------------------------------------
B|--------------------------------------------
G|--------------------------------------------
D|--------------------------------------------
A|--------------------------------------------
E|-5*-5*--5*--5*-5*--5*--5*--5*---------------

Everybody will be let down
Everybody will be let down

E|--------------------------------------------|
B|---------------------9-9-9------------------|
G|---------------------x-x-x--7-7-7--6-6------|
D|-7~~---7-7-7-7-7-7---6-6-6--x-x-x--x-x------|  2x
A|-0~~---0-0-0-0-0-0----------5-5-5--4-4------|
E|--------------------------------------------|

Riff
E|--------------------------------------------|
B|--------------------------------------------|
G|--------------------------------------------|
D|-7-7-7-7-7-7-7-7-7-7-7-7-7-7~~--------------|
A|-0-0-0-0-0-0-0-0-0-0-0-0-0-0~~--------------|
E|--------------------------------------------|

A5
What is this for ex-parking lot
The dreamers go buy they never stop
20 plus 5 in let the youth cave in

E|--------------------------------------------|
B|--------------------------------------------|
G|---------8----------------------------------|
D|---------x----------6------7----------------|
A|-2---2---6---2------x------x----------------|
E|-0---0-------0------4------5----------------|

E5   B/D# E5    G#5  A5
Tiny voi--ces
E5           B/D# E5    G#5  A5
make things  har---der

   Harmônico e P.M ............
E|--------------------------------------------
B|--------------------------------------------
G|--------------------------------------------
D|--------------------------------------------
A|--------------------------------------------
E|-5*-5*--5*--5*-5*--5*--5*--5*---------------

Everybody will be let down
Everybody will be let down

E|--------------------------------------------
B|--------------------------------------------
G|--------------------------------------------
D|-----2-----2------------4-----4-------------  8x
A|---2-----2-----2------2-----2-----2---------
E|-0-----0-----0------0-----0-----0-----------

E|--------------------------------------------
B|--------------------------------------------
G|--------------------------------------------  2x
D|--------------------------------------------
A|--------------------------------------------
E|-0~~~~--------4~~~~-----------5~~~~----5~~~~

    Tiny Voices, I Hear Voices..

E|--------------------------------------------
B|--------------------------------------------
G|--------------------------------------------
D|-----2-----2------------4-----4-------------  8x
A|---2-----2-----2------2-----2-----2---------
E|-0-----0-----0------0-----0-----0-----------

[Refrão]

E|--------------------------------------------|
B|--------------------------------------------|
G|---------8----------------------------------|
D|---------x----------6------7----------------|
A|-2---2---6---2------x------x----------------|
E|-0---0-------0------4------5----------------|

E5   B/D# E5    G#5  A5
Tiny voi--ces
E5           B/D# E5    G#5  A5
make things  har---der
E5   B/D# E5    G#5  A5
Tiny voi--ces
E5           B/D# E5    G#5  A5
make things  har---der

   Harmônico e P.M ............
E|--------------------------------------------
B|--------------------------------------------
G|--------------------------------------------
D|--------------------------------------------
A|--------------------------------------------
E|-5*-5*--5*--5*-5*--5*--5*--5*---------------

Everybody will be let down
Everybody will be let down
Everybody will be let down
Everybody will be let down
exibições 7.813
Acordes para:
    Composição: Tom DeLonge / Travis Barker Colaboração e revisão:
    • Renan Luiz

    0 comentários

    mostrar mais comentários

    Conseguiu tocar?

    1 tocaram 0 ainda não

    Grave um vídeo tocando Tiny Voices e mande pra gente!

    00:00 / 00:00
    outros vídeos desta música
    repetir qualidade Automático
    Outros vídeos desta música
    00:00 / 00:00
    Automático
    OK