Cifra Club

Benkei

Boy Hits Car

Cifra: Principal (violão e guitarra)
tom: G
Tuning: Drop D (e B G D A D) High to low

Intro: My Animal(Clean then distortion)
-------------------------------------------|
-----7------7-----7-------7------7-----7---|
---7---7-7----7-7---7---7---7-7----7-7---7-|M.A.:1 1/2x clean
-0--------------------0--------------------|     4x Distorion
-------------------------------------------|B.H.C.:4x Distortion
-------------------------------------------|
Intro: Part 2
-------------------------------------|
-------------------------------------|
-------------------------------------|M.A.:2x Distortion
------4-----4---7-------4-----4---7--|B.H.C.:2x Distortion
-5--5---5-5---5----5--5---5-5---5----|
-------------------------------------|
Chorus:Distortion
---------------------------------------------|M.A.:4x Distorion
---------------------------------------------|Deadened strings are
----11-11----------7----11-11----------------|harmonics on M.A.
-0-0-x-x-3-0-3h5-0-7-0-0-x-x-3-0-3h5-x-x-3h5-|B.H.C.:4x Distortion
-0-0-9-5-3-0-3h5-0-5-0-0-9-5-3-0-3h5-x-x-3h5-|End on D and let  
-0-0-----3-0-3h5-0---0-0-----3-0-3h5-x-x-3h5-|ring
Play intro 2x
Pre-Chorus:       3x       1x
-----------------------|------------------------|
-----------------------|------------------------|
-----------------7-7-7-|-------------7--7-7-7-7-|
-3-0-3-0-3-0-3-0-7-7-7-|-3-0-3-0-3-0-7--7-7-7-7-|
-3-0-3-0-3-0-3-0-5-5-5-|-3-0-3-0-3-0-5--5-5-5-5-|
-3-0-3-0-3-0-3-0-------|-3-0-3-0-3-0------------|
Chorus:
Interlude:
----------------|
----------------|
----------------|
-3-3/5-5-5-5/12-|
----------------|
----------------|
Intro:
Prechorus:
Chorus:2x
Break:Part 1
---------------|
---------------|
---------------|
-0-3h5-0-0-3h5-|
-0-3h5-0-0-3h5-|
-0-3h5-0-0-3h5-|
Break:Part 2
-------------------|
-------------------|
---10h12-----10h12-|
-0-------0-0-------|
-------------------|
-------------------|
Intro: Part 2
Chorus: My Animal ends here with chorus on D
Any Questions comments or corrections e-mail them to me Greg at
Gutterball438@*
00:00 / 00:00
Outros vídeos desta música
Repetir
Outros vídeos desta música
Composição de Boy Hits Car
305 exibições
    • ½ Tom
    • A
    • Bb
    • B
    • C
    • Db
    • D
    • Eb
    • E
    • F
    • F#
    • G
    • Ab
  • Adicionar à lista

    0 comentários

    Ver todos os comentários

    Conseguiu tocar?

    0 Tocaram 0 Ainda não

    Grave um vídeo tocando Benkei e nos envie!

    Entre para oCifra Club PRO

    Tenha acesso a benefícios exclusivos no App e no Site

    • Chega de anúncios

    • Prioridade de compra em lançamentos

    • Mais recursos no app do Afinador

    • Atendimento Prioritário

    • Descontos nos produtos Cifra Club

    • Ajude a produzir mais conteúdo

    00:00 / 00:00

    Cifra Club Pro

    Aproveite o Cifra Club com benefícios exclusivos e sem anúncios
    Cifra Club Pro
    Aproveite o Cifra Club com benefícios exclusivos e sem anúncios
    OK