Cifra Club

Escape The World

Boy Hits Car

Cifra: Principal (violão e guitarra)
Selo Cifra Club: esta cifra foi revisada para atender aos critérios oficiais da nossa Equipe de Qualidade.
tom: F#m
E|--------------------------------------------|
B|--5-5-5-8-8-8-10-10-10-5-5-5-7-7-8-8--------|
G|--2-2-2-5-5-5-7--7--7--2-2-2-4-4-5-5--------|
D|--------------------------------------------| x however much needed
A|--------------------------------------------|
E|--------------------------------------------|

E|--5-|
B|--5-|
G|--7-| chord that comes in at about 6 seconds
D|--7-| strum up(not right but close enough)
A|--5-|
E|--5-|

chorus (distortion)
E|-----------------------------------|
B|-----------------------------------|
G|--9-9-xx-7-7777-xx-2-2-xx5-5-5-5-5-|
D|--9-9-xx-7-7777-xx-2-2-xx5-5-5-5-5-|
A|--7-7-xx-5-5555-xx-0-0-xx3-3-3-3-3-|
E|-----------------------------------|
x4

verse(guitar 1)
E|------------------------------------------------------------|
B|------------------------------------------------------------|
G|------------------------------------------------------------|
D|--2-2-2-3-3-3-6-6-6-7-7-7-3-3-6-6-2-2-2-3-3-3-2-2-2-0-0-0-2-|
A|------------------------------------------------------------|
E|------------------------------------------------------------|
x4

verse(guitar 2)
E|----------|
B|----------| you will here when this comes in.
G|----------| maybe palm mute?
D|--7-7-7-7-|
A|--7-7-7-7-|
E|--7-7-7-7-|

repeat chorus

repeat verse
not sure about the harmonic sounding thing in between each of guitar 1's riff.

repeat chorus

interlude thing
E|------------------------------------------------------------|
B|------------------------------------------------------------|
G|------------------------------------------------------------|
D|--2-2-2-3-3-3-6-6-6-7-7-7-3-3-6-6-2-2-2-3-3-3-2-2-2-0-0-0-2-|
A|--2-2-2-3-3-3-6-6-6-7-7-7-3-3-6-6-2-2-2-3-3-3-2-2-2-0-0-0-2-|
E|------------------------------------------------------------|

guitar 1
tremolo pick a 12 on the high e string and slide down when you hear him slide

guitar 2
E|----------------------------------|
B|----------------------------------|
G|----------------------------------|
D|--2-2-2-5-5-5-7-7-7-2-2-2-4-4-5-5-|
A|--2-2-2-5-5-5-7-7-7-2-2-2-4-4-5-5-|
E|--2-2-2-5-5-5-7-7-7-2-2-2-4-4-5-5-|

guitar 1 does acoustic bit again and somewhere during that gutiar 2 rings out
|-12-
E|----|
B|----|
G|----|
D|----|
A|----|
Outros vídeos desta música
    2 exibições
      • ½ Tom
      • Am
      • Bbm
      • Bm
      • Cm
      • C#m
      • Dm
      • Ebm
      • Em
      • Fm
      • F#m
      • Gm
      • G#m
    • Adicionar à lista

    Afinação da cifra

    Afinador online

      0 comentários

      Ver todos os comentários

      Conseguiu tocar?

      0Tocaram0Ainda não

      Grave um vídeo tocando Escape The World e nos envie!

      Toque também

      1. Imagem do artista Finger ElevenParalyzer Intro Finger Eleven
      2. Imagem do artista AudioventThe Energy Audiovent
      3. Imagem do artista SinchBitmap Sinch
      4. Imagem do artista OnesidezeroTapwater Onesidezero

      Entre para o Cifra Club PRO

      Tenha acesso a benefícios exclusivos no App e no Site

      • Chega de anúncios

      • Badges exclusivas

      • Mais recursos no app do Afinador

      • Atendimento Prioritário

      • Aumente seu limite de lista

      • Ajude a produzir mais conteúdo

      Cifra Club Pro

      Aproveite o Cifra Club com benefícios exclusivos e sem anúncios
      Cifra Club Pro
      Aproveite o Cifra Club com benefícios exclusivos e sem anúncios
      Ops (: Contenido disponible sólo en portugués.
      OK