Cifra Club

Man Without Skin

Boy Hits Car

Cifra: Principal (violão e guitarra)
Selo Cifra Club: esta cifra foi revisada para atender aos critérios oficiais da nossa Equipe de Qualidade.
tom: A
Intro: (Acoustic)

E|---------------------------------------|
B|---------------------------------------|
G|-------9------10-----12-----10---------|
D|-------10-----10-----10-----10---------|
A|-------10-----10-----10-----10---------|
E|-------8------8------8------8----------|

Make sure you play the g string a little more distinctly than the others, because
that?s the string you hear the most.   Listen to the song for the strumming.


Riff 1 (Verse):  (Electric, but with some effect, maybe a tweaked chorus)

E|----------------------------------------|
B|----------------------------------------|
G|------11------12------14------12--------|
D|------12------12------12------12--------|
A|------12------12------12------12--------|
E|------12------12------12------12--------|

It?s the same thing as the intro, just on the electric and in a different tuning.


Riff 2 (Chorus):  (Distorted Electric)

E|---------------------------------------------|
B|---------------------------------------------|
G|------11----11-----11------12----12-----12---|
D|---0-----0-----0--------0-----0--------------|
A|---0-----0-----0--------0-----0--------------|
E|---0x3---0x3---0x2------0x3---0x3---0x2------|


E|---------------------------------------------|
B|---------------------------------------------|
G|------14----14-----14------12----12-----12---|
D|---0-----0-----0--------0-----0--------------|
A|---0-----0-----0--------0-----0--------------|
E|---0x3---0x3---0x2------0x3---0x3---0x2------|


E|---------------------------------------------|
B|---------------------------------------------|
G|------11----11-11h12p12----12----12-12h14p12-|
D|---0-----0--------------0-----0--------------|
A|---0-----0--------------0-----0--------------|
E|---0x3---0x3------------0x3---0x3------------|


E|---------------------------------------------|
B|---------------------------------------------|
G|------14----14-14h16p14----12----12-12h14p12-|
D|---0-----0--------------0-----0--------------|
A|---0-----0--------------0-----0--------------|
E|---0x3---0x3------------0x3---0x3------------|

look at the order of the riffs to see when to play what parts of riff 2


Riff 3:   Distorted Electric

E|---------------------------------------------|
B|---------------------------------------------|
G|----------11-------11h14p11------------------|
D|------0--------0-----------------------------|
A|------0--------0-----------------------------|
E|------0x3------0x3---------------------------|
4 times


Riff 4:   Distorted Electric

E|---------------------------------------------|
B|---------------------------------------------|
G|---------------------------------------------|
D|----0------0------0------0-------------------|
A|----0------0------0------0-------------------|
E|----0x3----0x3----0x3----0x3-----------------|


Riff 5:   Distorted Electric

E|----------------------------------------------------|
B|----------------------------------------------------|
G|--11-11--------12-12--------14-14-------12--12| ?12^--|
D|----------------------------------------------------|
A|------12-12--------12-12--------12-12---------------|
E|----------------------------------------------------|
    3 times     3 times      3 times

Order of Riffs:

Intro x3
Intro x1 (different strumming)
Riff 1 x2
Riff 2 x1 (only first half of the riff)
Riff 1 x2
Riff 2 x1 (whole riff)
Riff 3 x1
Riff 4 x4
Riff 1 x1
Riff 5 x1
Riff 2 x1 (whole riff)
Riff 2 x1 (only second half of the riff)
Intro x1
Outros vídeos desta música
    4 exibições
      • ½ Tom
      • A
      • Bb
      • B
      • C
      • Db
      • D
      • Eb
      • E
      • F
      • F#
      • G
      • Ab
    • Adicionar à lista

    Afinação da cifra

    Afinador online

      0 comentários

      Ver todos os comentários

      Conseguiu tocar?

      0Tocaram0Ainda não

      Grave um vídeo tocando Man Without Skin e nos envie!

      Toque também

      1. Imagem do artista Finger ElevenParalyzer Intro Finger Eleven
      2. Imagem do artista AudioventThe Energy Audiovent
      3. Imagem do artista SinchBitmap Sinch
      4. Imagem do artista OnesidezeroTapwater Onesidezero

      Entre para o Cifra Club PRO

      Tenha acesso a benefícios exclusivos no App e no Site

      • Chega de anúncios

      • Badges exclusivas

      • Mais recursos no app do Afinador

      • Atendimento Prioritário

      • Aumente seu limite de lista

      • Ajude a produzir mais conteúdo

      Cifra Club Pro

      Aproveite o Cifra Club com benefícios exclusivos e sem anúncios
      Cifra Club Pro
      Aproveite o Cifra Club com benefícios exclusivos e sem anúncios
      Ops (: Contenido disponible sólo en portugués.
      OK