Cifra Club

Everytime

Boy Pablo

Cifra: Principal (violão e guitarra)
tom: D
[Intro] Em7(b5)  A7  Gmaj7  Em7(b5)  A7  Dmaj7

E|----------------------------------------|
B|--------8--------8--7-------------------|
G|--7/9-----7/9--------7--4----4----------|
D|----------------------------------------|
A|----------------------------------------|
E|----------------------------------------|

E|--------------------------------------------|
B|--------8--------8--7-----------------------|
G|--7/9-----7/9--------7--4--2-----4/7--------|
D|--------------------------------------------|
A|--------------------------------------------|
E|--------------------------------------------|

Em7(b5)           A7                   Gmaj7
As you can see she hasn't met him yet
Em7(b5)          A7              Dmaj7
She already fell in love I bet
Em7(b5)                   A7                          Gmaj7
Her keyboard gets slammed by her fingers
Em7(b5)               A7             Dmaj7              D9
But he replies with ok everytime, everytime

(Riff 1)

E|--10--7-------10--7---------|
B|---------10----------10-----|
G|----------------------------|
D|----------------------------|
A|----------------------------|
E|----------------------------|

Gmaj7                                Em7
She doesn't know who he is
                                                  Dmaj7
No, she doesn't know what he's up to
         B7sus4     B7
Oooooooh
Em7                              Em7(b5)    A13     A7
She doesn't know who he is

( Gmaj7 )

[Solo] Em7(b5)  A7  Dmaj7  Em7(b5)  A7  Gmaj7

    Em7(b5)         A7                                    Dmaj7
E|---------------------------10--------------------------------------------------|
B|--------8--10--10b12-------12b10--8--7--8p7--5--7--8--7--10--10--8--7--------|
G|--7h9--------------------------------------------------------------------7-----|
D|-------------------------------------------------------------------------------|
A|-------------------------------------------------------------------------------|
E|-------------------------------------------------------------------------------|

    Em7(b5)            A7           Gmaj7
E|---------------------7----------------------------------------------|
B|-----------10--8--------8--7--8p7--5--7--7--7--10--8--7--10--8--7-|
G|--------7---------9---------------------------------------------------|
D|--7h8---------------------------------------------------------------|
A|--------------------------------------------------------------------|
E|--------------------------------------------------------------------|

Gm7                     F#m7
He doesn't see her
Bm7                      Gmaj7
He sees right through her
F#m7        D9
     Oooooooh

Gmaj7                                Em7
She doesn't know who he is
                                                  Dmaj7
No, she doesn't know what he's up to
         B7sus4     B7
Oooooooh
 Em7                                 Dmaj7               D9
Her heart gets broken everytime, everytime

Gmaj7                                Em7
She doesn't know who he is
                                                  Dmaj7
No, she doesn't know what he's up to
         B7sus4     B7
Oooooooh
Em7
She doesn't know who he is
Dmaj7
She doesn't know who she is

Riff 2
E|-----5--5-----5-----5-----5-----5------------10--10------10------10------10------10-------|
B|-/7--------7-----7-----7-----7-----7--7/12-----------12------12------12------12------12-|
G|------------------------------------------------------------------------------------------|
D|------------------------------------------------------------------------------------------|
A|------------------------------------------------------------------------------------------|
E|------------------------------------------------------------------------------------------|

E|-----10--10-----10-------------------------|
B|--7----------7------7--5--7--7h8--7--------|
G|-------------------------------------------|
D|-------------------------------------------|
A|-------------------------------------------|
E|-------------------------------------------|

E|-----5--5-----5-----5-----5------------------9--9------9--------12-|
B|-/7--------7-----7-----7--------7--7/10-----------10------10-------|
G|-------------------------------------------------------------------|
D|-------------------------------------------------------------------|
A|-------------------------------------------------------------------|
E|-------------------------------------------------------------------|
00:00 / 00:00
Outros vídeos desta música
Repetir
Outros vídeos desta música
Compositor não encontrado.
Colaboração e revisão:
  • Victor Senna
  • João Lima
13.098 exibições
  • Simplificar cifra
    • ½ Tom
    • A
    • Bb
    • B
    • C
    • Db
    • D
    • Eb
    • E
    • F
    • F#
    • G
    • Ab
  • Adicionar à lista

    0 comentários

    Ver todos os comentários

    Conseguiu tocar?

    11 Tocaram 2 Ainda não

    Grave um vídeo tocando Everytime e nos envie!

    Entre para oCifra Club PRO

    Tenha acesso a benefícios exclusivos no App e no Site

    • Chega de anúncios

    • Prioridade de compra em lançamentos

    • Mais recursos no app do Afinador

    • Atendimento Prioritário

    • Descontos nos produtos Cifra Club

    • Ajude a produzir mais conteúdo

    00:00 / 00:00

    Cifra Club Pro

    Aproveite o Cifra Club com benefícios exclusivos e sem anúncios
    Cifra Club Pro
    Aproveite o Cifra Club com benefícios exclusivos e sem anúncios
    OK