Enviar cifraEntrar

A Thousand Years

Boyce Avenue

Cifra: Principal
exibições 148.259
Tom: G Afinação: D G C F A D
Intro:


D|---------------------3-2-------------------------------------|
A|---3----3--------3-------1-----0-----------0-----3-----------|
F|----0----0h2-2----0-----------0------0---0h2---5-4-2--0------|
C|--0----0-0--0---0------0-----2---------2-------0---0----4-0--|
G|---------------------------3---------3-----------------------|
D|-3----3--2-----0-----0---------------------------------------|


(Violão padrão)

C9
Heart beats fast
             G
Colors and promises
            Em
How to be brave
           D     G     C9
How can I love when I'm afraid to fall
                   G
But watching you stand alone
           Em           D     G       Am7
All of my doubt suddenly goes away somehow

         Em  D
One step closer

G                            D/F#
I have died everyday waiting for you
Em                            D
Darling don't be afraid I have loved you
    C9
For a thousand years
                D4            D
I love you for a thousand more

Passagem


         C9
D|-3--------2--------0--------------------|
A|--3-3------3-3-------3-3----------------|
F|---0-0------0-0-------0-0-0h2-4-2p0-----|
C|-----------------------------------2p0--|
G|-3--------3--------3--------------------|
D|----------------------------------------|


C9
Time stands still
          G
Beauty in all she is
            Em
I will be brave
            D     G        C9
I will not let anything take away
                           G
What's standing in front of me
        Em
Every breath
       D         G      Am7
Every hour has come to this

         Em   D
One step closer

G                            D/F#
I have died everyday waiting for you
Em                             D
Darling don't be afraid I have loved you
    C9
For a thousand years
                D4            D
I love you for a thousand more

   G                             D/F#
And all along I believed I would find you
 Em
Time has brought your heart to me
   D                     C9
I have loved you for a thousand years
                 D4          D
I love you for a thousand more


          D           Am (2x)            Em                 D
D|-3p2--------|------------------|------------------|---------|
A|-----3h0--0-|----1------1------|----0-------0-----|----3----|
F|---------2--|--2--2---2--2-----|--0---0---0---0---|--2---2--|
C|-0----------|------------------|------------------|---------|
G|------------|-0-0----0-0-------|------------------|-0-0-0---|
D|------------|------------------|-0-0-0---0-0-0----|---------|


Am7       Em       D
One step clo______ser

Am7       Em       D
One step clo______ser

G                            D/F#
I have died everyday waiting for you
Em                             D
Darling don't be afraid I have loved you
    C9
For a thousand years
                D4            D
I love you for a thousand more

   G                             D/F#
And all along I believed I would find you
 Em
Time has brought your heart to me
       D                C9
I have loved you for a thousand years
                 D4           D
I love you for a thousand more

Am7      Em       D
One step clo______ser

Am7       Em       D
One step clo______ser


         D           Am (2x)            Em                 D
D|-3p2--------|------------------|------------------|---------|
A|-----3h0--0-|----1------1------|----0-------0-----|----3----|
F|---------2--|--2--2---2--2-----|--0---0---0---0---|--2---2--|
C|-0----------|------------------|------------------|---------|
G|------------|-0-0----0-0-------|------------------|-0-0-0---|
D|------------|------------------|-0-0-0---0-0-0----|---------|
  • 1
  • 2
  • 3
  • 4
  • 5
  • 6
  • 7
  • 8
  • 9
  • 10
  • 11
  • 12
    Acordes para:

      0 comentários

        mostrar mais comentários

        Conseguiu tocar?

        11tocaram1ainda não

        Grave um vídeo tocando A Thousand Years e mande pra gente!

        00:00 / 00:00
        outros vídeos desta música
        repetirqualidadeautomática
        • automática
        Outro vídeos desta música
          00:00 / 00:00
          automática
          • automática
          Acordes para:violão e guitarra
          dificuldadeexibiçõescontribuições
          fecharplay/pause subir/descer velocidade
            acordes
            fechar
            OK
            Feedback