Cifra Club

Dreams

Boyz II Men

Cifra: Principal (violão e guitarra)
Selo Cifra Club: esta cifra foi revisada para atender aos critérios oficiais da nossa Equipe de Qualidade.
tom: D
G]--------------10--10/12---10----------|
D]--------------------------------------|
A]--------------------------------------|
E]--------------------------------------|


e]--------------------------------------------|
B]--10h11p10p8--------------------------------|
G]--------------------10--10/12---------10----|
D]----------------------------------12--------|
A]--------------------------------------------|
E]--------------------------------------------|

e]-------------------------------------------------8-----------|
B]-10--11--10h11p10p8-----------------------------------8/10---|
G]----------------------------10--10/12---10-------------------|
D]-------------------------------------------------------------|
A]-------------------------------------------------------------|
E]-------------------------------------------------------------|

e]-------------------------------------------------------------|
B]--11p10--8---------------------------------------------------|
G]--------------10--7---10/12----------------------------------|
D]----------------------------------10/12--12h13p12p10---------|
A]-------------------------------------------------------------|
E]-------------------------------------------------------------|
Outros vídeos desta música
    9 exibições
      • ½ Tom
      • A
      • Bb
      • B
      • C
      • Db
      • D
      • Eb
      • E
      • F
      • F#
      • G
      • Ab
    • Adicionar à lista

    Afinação da cifra

    Afinador online

      0 comentários

      Ver todos os comentários

      Entre para o Cifra Club PRO

      Tenha acesso a benefícios exclusivos no App e no Site

      • Chega de anúncios

      • Badges exclusivas

      • Mais recursos no app do Afinador

      • Atendimento Prioritário

      • Aumente seu limite de lista

      • Ajude a produzir mais conteúdo

      Cifra Club Pro

      Aproveite o Cifra Club com benefícios exclusivos e sem anúncios
      Cifra Club Pro
      Aproveite o Cifra Club com benefícios exclusivos e sem anúncios
      Ops (: Contenido disponible sólo en portugués.
      OK