Cifra Club

Perguntas Sem Respostas

Brasas do Forró

Cifra: Principal (violão e guitarra)
Selo Cifra Club: esta cifra foi revisada para atender aos critérios oficiais da nossa Equipe de Qualidade.
tom: A
[Intro] A  Bm  E  A  Bm  E (2x)

E|-----------------------------------------|
B|-------0-2-0-2-0-2-0-2-0-----------------|
G|-----2-------------------2-0-------------|
D|---2-------------------------2-----------|
A|-----------------------------------------|
E|-----------------------------------------|

E|-----------------------------------------|
B|-------0-2-3-2-3-2-3-2-3-2---------------|
G|-----2---------------------4-2-----------|
D|-------------------------------4---------|
A|-----------------------------------------|
E|-----------------------------------------|

E|-----------------------------------------|
B|------2-5-4-5-4-5-4-5-4-5-4-5-7----------|
G|--2-4---------------------------6--6-5-4-|
D|-----------------------------------------|
A|-----------------------------------------|
E|-----------------------------------------|


A               E           F#m   F#7   Bm         F#           Bm
Porque viver chorando por você,      se tu nem ao menos quer me ver
           C#7                   F#m                    B
Não sei porque fui te dar o meu amor , se você não dá valor ao que
           E
Sinto por você

A           E            F#m  F#7     Bm       F#          Bm
Será que você já tem alguém , que como eu sofre por você também
    C#7                    F#m                             B
Ou será que você não tem coração , que não sabe o que é paixão
                      E          Em       A7
Será que num ama ninguém
   D             E               A
Cuidado , que o mundo dá muitas voltas
        F#        Bm              E                  Em     A7
E quem sabe você gosta , de um alguém que não te quer
          D         E           C#m    F#7               B
Tu vai pagar o que você fez pra mim ,       quem sabe assim
                         E    Em     A7
Vai dar valor a quem te quer

          D         E           C#m    F#7               B
Tu vai pagar o que você fez pra mim ,       quem sabe assim
           E             A
Vai dar valor a quem te quer

( A  Bm  E  A  E )
Outros vídeos desta música
    67.642 exibições
      • ½ Tom
      • A
      • Bb
      • B
      • C
      • Db
      • D
      • Eb
      • E
      • F
      • F#
      • G
      • Ab
    • Adicionar à lista

    Afinação da cifra

    Afinador online

      0 comentários

      Ver todos os comentários

      Entre para o Cifra Club PRO

      Tenha acesso a benefícios exclusivos no App e no Site

      • Chega de anúncios

      • Badges exclusivas

      • Mais recursos no app do Afinador

      • Atendimento Prioritário

      • Aumente seu limite de lista

      • Ajude a produzir mais conteúdo

      Cifra Club Pro

      Aproveite o Cifra Club com benefícios exclusivos e sem anúncios
      Cifra Club Pro
      Aproveite o Cifra Club com benefícios exclusivos e sem anúncios
      Ops (: Contenido disponible sólo en portugués.
      OK