Cifra Club

Cool Schmool

Bratmobile

Cifra: Principal (violão e guitarra)
tom: G
Verso:

E|------------------------------|
B|------------------------------|
G|------------------------------|
D|------------------------------|
A|-8-8-8-8--6-6-6--4--4-4-4-4--6|
E|------------------------------|

Refrão:

E|----------------------------------|
B|----------------------------------|
G|-----------10-10-10-10-10-10-10-10|
D|-5--5-8--8-10-10-10-10-10-10-10-10|
A|-5--5-8--8-8--8--8--8--8--8--8--8-|
E|-3--3-6--6------------------------|

Ponte:

E|----------------|
B|----------------|
G|----------------|
D|----------------|
A|-7-7-7-8--8-8-8-|
E|----------------|
00:00 / 00:00
Outros vídeos desta música
Repetir
Outros vídeos desta música
Composição de Bratmobile
Colaboração e revisão:
  • Jason Voorhees
130 exibições
    • ½ Tom
    • A
    • Bb
    • B
    • C
    • Db
    • D
    • Eb
    • E
    • F
    • F#
    • G
    • Ab
  • Adicionar à lista

    0 comentários

    Ver todos os comentários

    Entre para oCifra Club PRO

    Tenha acesso a benefícios exclusivos no App e no Site

    • Chega de anúncios

    • Prioridade de compra em lançamentos

    • Mais recursos no app do Afinador

    • Atendimento Prioritário

    • Descontos nos produtos Cifra Club

    • Ajude a produzir mais conteúdo

    00:00 / 00:00

    Cifra Club Pro

    Aproveite o Cifra Club com benefícios exclusivos e sem anúncios
    Cifra Club Pro
    Aproveite o Cifra Club com benefícios exclusivos e sem anúncios
    OK