Cifra Club

Aprenda

Crosseyed

Brendan Benson

Cifra: Principal (violão e guitarra)
tom: D
Turner: Eb Bb Gb Db Ab Eb
Chorus:

E |-3-----3-------3------------
B |-3-----3-------3------------
G |-4--7--4----5--4--7-------5-
D |-5--7--5--3-5--5--7--7--3-5-
A |-5--5--5--3-3--5--5--7--3-3-
E |-3-----3--1----3-----5--1---

Main basis:

-6----
-6----
-7--5-
-8--5-
-8--3-
-6----

Solo(with slide and wah):

E |------------------------------------------------------------------------------------------
B |----------------------------5/3-------12-12/10----10-10/7-7-5/7/5---5/7/5/7---8/--8/10----
G |--------------------------5-----3-/12----------10-----------------5---------7---5------9/-
D |-8-7-5--8/10-7-3-5/7/5--3--------5--------------------------------------------------------
A |------------------------------------------------------------------------------------------
E |------------------------------------------------------------------------------------------
Composição de Brendan Benson / Jason Falkner
Colaboração e revisão:
  • Caio Gonçalves
224 exibições
    • ½ Tom
    • A
    • Bb
    • B
    • C
    • Db
    • D
    • Eb
    • E
    • F
    • F#
    • G
    • Ab
  • Adicionar à lista

    0 comentários

    Ver todos os comentários

    Conseguiu tocar?

    0 Tocaram 0 Ainda não

    Grave um vídeo tocando Crosseyed e nos envie!

    00:00 / 00:00
    outros vídeos desta música
    repetir qualidade Automático
    Outros vídeos desta música
    00:00 / 00:00
    Automático

    Cifra Club Pro

    Aproveite o Cifra Club com benefícios exclusivos e sem anúncios
    Cifra Club Pro
    Aproveite o Cifra Club com benefícios exclusivos e sem anúncios
    OK