Cifra Club

Heroes

Bride

Cifra: Principal (violão e guitarra)
tom: A
OBS: 
Para não ficar repetindo tudo de novo na sequência, achei que ficaria
mais fácil de entender, nomeando cada trecho da música por um número
(ordem que aparece na música) e uma letra (A para guitarra base e B
para dueto e assim por diante...). 
Ex: [1A+1B - (2x)] - quer dizer que enquanto uma guitarra toca a
parte 1A, a outra toca a parte 1B ao mesmo tempo; o (2x) significa
que deve-se fazer tudo isso duas vezes...
Não aconselho tentar ler a tablatura sem antes imprimi-la...
é quase impossível...
Por ser uma música mais complicadinha, dividi-a em várias partes.
Qualquer dúvida, sugestão ou crítica, envie um e-mail pra mim:


-=-=-=-=-=-=-=-=-=-=-=-=-=-=-=-=-=-=-=-=-=-=--=-=-=-=-=-=-=-=-=-=-=-=
Sequência:

1 - Sem distorção, com voz no fundo: 

        [1A - (4x)] -=> [1A+1B - (4x)] -=> [1A+1B+1C - (2x)]

2 - Intro c/ distorção:

        [1A (2x)] -=> [2B] -=> [2A+2B] -=> [3A] -=> [4A+4B]

3 - BASE DA MÚSICA: 

        [5A (8x)]

4 - BASE PARA O SOLO: 

        [5A (4x)]

5 - TRECHO DO SOLO: 

[6A-(2X)] -=> [7A] [6A-(2x) -=> [???????] -=> [8A] -=> [(8A+8B)] -=> [?????]
 -=> [3A] -=> [4A+4B]

6 - Base da música:
        [5A - (6x)]

7 - Solo final:
        [9a - (3x)] -=> [10a]

8 - Final:

        [2B - (3x)] -=> F#


-=-=-=-=-=-=-=-=-=-=-=-=-=-=-=-=-=-=-=-=-=-=--=-=-=-=-=-=-=-=-=-=-=-=


        Introducao
                        1A
E ||----------------------------------------------------|
B ||----------------------------------------------------|
G ||----------------------------------------------------|
D ||----------------------------------------------------|
A ||---------------5-------------4-------------------4--|
E ||-2-2--4--5-4-2----2-4--5-4-2----2-4--5-4-2----4-----|

                        1B
E ||----------------------------------------------------|
B ||----------------------------------------------------|
G ||---------------7-------------6-------------------6--|
D ||-4-4--6--7-6-4----4-6--7-6-4----4-6--7-6-4----6-----|
A ||----------------------------------------------------|
E ||----------------------------------------------------|

1C - C# D C# G#



2A - F# D  E

                        2B
E ||--------------------------------------------------|
B ||--------------------------------------------------|
G ||--------------------------------------------------|
D ||------------------4-6-7-6-4-6-7-6-4-6-7-6-4-6-7-6-|
A ||-2-4-5-4-2-4-5-4----------------------------------|
E ||--------------------------------------------------|

              3A                            4A
E ||-5-4-2---5-4-2--2-4/7-5-4---5-4-2-|--5-4-2--2-4/7-5/12-9-|
B ||----------------------------------|----------------------|
G ||----------------------------------|----------------------|
D ||----------------------------------|----------------------|
A ||----------------------------------|----------------------|
E ||----------------------------------|----------------------|

              3B                            4B
E ||----------------------------------|-9-7-5--5-7/11-10-12-14-|
B ||----------------------------------|------------------------|
G ||----------------------------------|------------------------|
D ||----------------------------------|------------------------|
A ||----------------------------------|------------------------|
E ||----------------------------------|------------------------|

Música

5A - BASE PARA MÚSICA E SOLO: F#  D  E

                6A                   7A
E ||------------20----------|-------------------|
B ||---------18----18-------|-------------------|
G ||------17----------17----|-17-15----15-17-15-|
D ||---15----------------15-|-------17----------|
A ||------------------------|-------------------|
E ||------------------------|-------------------|

                  8A
E ||-0-9-0-7-0-5-0-7-0-4-0-5-0-2-0-4-|
B ||---------------------------------|
G ||---------------------------------|
D ||---------------------------------|
A ||---------------------------------|
E ||---------------------------------|

                           8B
E ||-12-21-12-19-12-18-12-19-12-16-12-17-12-14-12-16-|
B ||-------------------------------------------------|
G ||-------------------------------------------------|
D ||-------------------------------------------------|
A ||-------------------------------------------------|
E ||-------------------------------------------------|

                                        9A
E ||-------------------------------------------------------------------------------|
B ||-------------------------------------------------------------------------------|
G ||-------------------------------------------------------------------------------|
D ||-11-------11----12-------12----9----9-9-9--11(b12)(r11)-9--11(b12)(r11)-9-11-9-|
A ||----9---9----9-----12-12----12---12--------------------------------------------|
E ||-------------------------------------------------------------------------------|

                        10A
E ||---------------------------------------------------|
B ||---------------------------------------------------|
G ||------------------------------------------------11-|
D ||-11-------11----12-------12----9--9-9-9--11(b12)---|
A ||----9---9----9-----12-12----12---------------------|
E ||---------------------------------------------------|
00:00 / 00:00
Outros vídeos desta música
Repetir
Outros vídeos desta música
Compositor não encontrado.
Colaboração e revisão:
  • raphael santos
5.917 exibições
    • ½ Tom
    • A
    • Bb
    • B
    • C
    • Db
    • D
    • Eb
    • E
    • F
    • F#
    • G
    • Ab
  • Adicionar à lista

    0 comentários

    Ver todos os comentários

    Conseguiu tocar?

    0 Tocaram 0 Ainda não

    Grave um vídeo tocando Heroes e nos envie!

    Entre para oCifra Club PRO

    Tenha acesso a benefícios exclusivos no App e no Site

    • Chega de anúncios

    • Prioridade de compra em lançamentos

    • Mais recursos no app do Afinador

    • Atendimento Prioritário

    • Descontos nos produtos Cifra Club

    • Ajude a produzir mais conteúdo

    00:00 / 00:00

    Cifra Club Pro

    Aproveite o Cifra Club com benefícios exclusivos e sem anúncios
    Cifra Club Pro
    Aproveite o Cifra Club com benefícios exclusivos e sem anúncios
    OK