Cifra Club

Aprenda

Meu Vício

Brilha Som

Cifra: Principal (violão e guitarra)
Tom: A
[Intro] A  D  E  D  A  D
        A  A  D  E

[Solo]

E|---5-5-5-5---|
B|---5-5-5-5---|
G|-------------|
D|-------------|
A|-------------|
E|-------------|

E|-------------------------------------|
B|---14-14---12-----14-14---12---------|
G|--------------14-------------14-11---|
D|-------------------------------------|
A|-------------------------------------|
E|-------------------------------------|

E|------------------------------------------|
B|-------12-12-------12-12------------------|
G|---14--------14-11-------14-11---6/11-9---|
D|------------------------------------------|
A|------------------------------------------|
E|------------------------------------------|

E|----------------------|
B|----------------------|
G|---------------11-9---|
D|----------------------|
A|---------9h11---------|
E|---9h11---------------|

E|----------------------------------|
B|---14-14---12-----14-14---12------|
G|--------------14-------------14---|
D|----------------------------------|
A|----------------------------------|
E|----------------------------------|

E|----------------------------------------------------------------|
B|-----------------12-12-----12----------------12-12------12------|
G|---11-11--14-14---------14-----13-13-13h14-----------13----14---|
D|----------------------------------------------------------------|
A|----------------------------------------------------------------|
E|----------------------------------------------------------------|

A
To na rua, to na sua
                               E
To no butéco bebendo pra esquecer

To a toa, to sem boa
                         A
Apaixonado pensando em você
                                RIFF 1
Você é um vicio que eu me dedico

RIFF 1
E|---------------|
B|--------10~~---|
G|---9-11--------|
D|---------------|
A|---------------|
E|---------------|

                           E
É o veneno que gosto de beber

Você é um sonho, é pesadelo
                            RIFF 2
É a modelo que eu preciso ter     

RIFF 2
E|------------------------------|
B|------------------------------|
G|------------------------------|
D|------------------------------|
A|-------------4-5-5---4--------|
E|---5-5---7--------------7-5---|

RIFF 3
E|---------------------|
B|---------------------|
G|---------------------|
D|---------------------|
A|--------5---5--------|
E|---5h7---------7-5---|

                     E
E por você eu ando assim doidão, doidão
                A              RIFF 3
Apaixonado por você na solidão
                 E
Você é tudo pra mim, amor, paixão
                             RIFF 2
Amor me leva la pro seu colchão
Composição de Brilha Som
Colaboração e revisão:
11.487 exibições
    • ½ Tom
    • A
    • Bb
    • B
    • C
    • Db
    • D
    • Eb
    • E
    • F
    • F#
    • G
    • Ab
  • Adicionar à lista

    0 comentários

    Mostrar mais comentários

    Conseguiu tocar?

    2 Tocaram 0 Ainda não

    Grave um vídeo tocando Meu Vício e mande pra gente!

    00:00 / 00:00
    outros vídeos desta música
    repetir qualidade Automático
    Outros vídeos desta música
    00:00 / 00:00
    Automático
    OK