Cifra Club

Some-Times

Britney Spears

Cifra: Principal
exibições 35.778
Tom: F
Versão 1
--------
 Sometimes:
 

   Intro:
   E|-----1------------------------------------------
   B-3-4---1---1-3-4-------1-3-4-3-1----------------
   G|-----------------3---3--------------------------
   D|------------------------------------------------
   A|------------------------------------------------
   E|------------------------------------------------

   Verse:(those are the chords for the verses)

   (Bb) (F) (Cm) (Bb) (F) (Cm) (F) (Cm) (F)


   Intro to the Chorus: play (Cm) (F) (Bb)(F) (Gm) (Cm) (Bb) (Cm) (F)


   Chorus: [chords above lyrics in ( ) ]

   (Bb) (F) (Cm)
   "Sometimes i run, Sometimes i hide, Sometimes i'm scared of you,

   (Bb) (F) (Cm) (F) but 
   all i really want is to hold you tight.. treat you right.. be with
   (Cm) (F)
   you day and night baby, all i need is time."



   (Gm) 
   (D) (Bb) (C) (Cm)
   "Just hang around and you'll see.. there's no where i'd rather be.. if 
   (F)
   you love me.. trust in me.."



   Guitar Solo:

   (strum a Bb before playing solo..)

   E|-----1------------------------------------------
   B-3-4---1---1-3-4-------1-3-4-3-1----------------
   G|-----------------3---3--------------------------
   D|------------------------------------------------
   A|------------------------------------------------
   E|------------------------------------------------

   E|-----1-----5-6-5-3------------------------------
   B-3-4---1-------------1-3-4-3-1------------------
   G|-------------------3------------3-2-3-----------
   D|------------------------------------------------
   A|------------------------------------------------
   E|------------------------------------------------
===============================================================

 Baby One More Time:

Intro


--------------------
-------------------
--------------------
-3---55-------------
-1---33-------------
--------------------

Verse
----------------------------------------
----------------------------------------
-5--------------------------------------
-5---------------5-------------------5--
-3---------------5-------------------5--
-----------------3-----------------1~3--

oh baby baby...how was i supposed to know...

--------------------------------------------
--------------------------------------------
---------------------8888---12121212--------
---------------------8888---12121212--------
---------------------6666~~~10101010--------
--------------------------------------------

(something something)buy your si-yi-de-yeah

------------------------------------------------------------------------
------------------------------------------------------------------------
---------5-5-5-5-5------5-3-3--3-3-3-----------5-5-5-5-6-6-6~5----------
-------------------------------------3~~5-------------------------------
------------------------------------------------------------------------
------------------------------------------------------------------------
        oh baby baby    how was I
                        supposed     to know   la da dada da da da yeah!
                                                (I dont know the lyrics)

Bridge


-----------------------------------------------------------------------
-----------------------------------------------------------------------
-5-----------3----------------------------8-------------------------12-
-5-----------3----------------------------8-------------------------12-
-3-----------1----------------------------6-------------------------10-
-----------------------------------------------------------------------

Show me......how ya want it to be....coz baby.... he doesnt need to know..

              
(repeatedley pick them)
------------------------------------------------------------------------
----------------4--------------6----------------8-----------------------
------5-----------------------------------------------------------------
------------------------------------------------------------------------
------------------------------------------------------------------------
------------------------------------------------------------------------

Versão 2
--------
                                                    SOMETIMES
                                                                     (Britney Spears)
C                          G/B
You tell me you're in love with me 
Dm                     G                          C
   Like you can't take your pretty eyes away from me
                      G/B
It's not that I don't want to stay
Dm                      G                    C       Dm
   But every time you come too close I move away
        G                               C
I wanna believe in every thing that you say
    G/B   Am       
'Cause it sounds so good
    Dm                                                                            
But if you really want me, move slow
F                                         G
There's things about me you just have to know
            C          G/B                                                                
Sometimes I run /  Sometimes I hide
          Dm                                                                            
Sometimes I'm scared of you
   G                        C
But all I really want is to hold you tight
      G/B                    Dm              G                  C
Treat you right/ Be with you day and night/  Baby all I need is time
          G/B
I don't wanna be so shy 
Dm                     G              C
   Every time that I'm alone I wonder why
              G/B
Hope that you will wait from me
Dm                          G             C  Dm
 You'll see that you're the only one from me
          G                            C
I wanna believe in everything that you say
    G/B   Am       
'Cause it sounds so good
    Dm                                 F                                         G                              
But if you really want me, move slow/  There's things about me you just have to know

REFRÃO
F                           E                                  Am
Just hang around and you'll see /   There's nowhere I'd rather be
                      D        Dm             G        C
If you love me, trust in me /  The way that I trust in you

REFRÃO
Acordes para:

    0 comentários

      mostrar mais comentários

      Conseguiu tocar?

      1tocaram0ainda não

      Grave um vídeo tocando Some-Times e mande pra gente!

      00:00 / 00:00
      outros vídeos desta música
      repetirqualidadeautomática
      Outro vídeos desta música
        00:00 / 00:00
        automática
        OK