Cifra Club

Toxic

Britney Spears

Cifra: Principal (violão e guitarra)
Selo Cifra Club: esta cifra foi revisada para atender aos critérios oficiais da nossa Equipe de Qualidade.
tom: Cm
[Intro] (Riff 1)

[Tab - Riff 1]

E|------------------------/15-10---11-10----|
B|---------------------------------------13-|
G|------------------------------------------| (4x)
D|------------------------------------------|
A|-3-3--6p5p3-6---3-6p5p3-------------------|
E|------------------------------------------|

[Primeira Parte]

                     Cm
Baby, can't you see?    I'm calling

A guy like you should wear a warning
Eb                G         Cm
   It's dangerous,  I'm falling

(Riff 1)

Cm
   There's no escape, I can't wait

I need a hit
              Eb
Baby, give me it
                 G            Cm
You're dangerous,  I'm loving it

(Riff 1)

[Pré-Refrão 1]

Cm
   Too high, can't come down

Losing my head

Spinning round and round
Eb  G                     Cm
      Do you feel me now?

(Riff 1) (Frase 1)

[Tab - Frase 1]

E|------------------------------------------|
B|------------------------------------------|
G|------------------------------------------|
D|------------------------------------------|
A|-3-3-3-3--3-3-3-3--3-3-3-3--3-3-3-3-------|
E|------------------------------------------|

[Refrão]

        Cm
With a taste of your lips
    Eb
I'm on a ride
D7
   You're toxic
Db7
I'm slipping under
        Cm
With a taste of your poison
 Eb
Paradise
       Ab7
I'm addicted to you
            G7
Don't you know that you're toxic?

( Cm  Eb )

[Tab - Frase 2]

   Cm            Eb
E|------------------------------------------|
B|------------------------------------------|
G|------------------------------------------|
D|------------5-----------------------------|
A|------3--3-----6--------------------------|
E|------------------------------------------|

       D7
And I love what you do
            Db7
Don't you know that you're toxic?

( Cm  Eb )

[Tab - Frase 3]

   Cm          Eb
E|------------------------------------------|
B|------------------------------------------|
G|-------5----------------------------------|
D|----------5-------------------------------|
A|-3-----------6----------------------------|
E|------------------------------------------|

( Ab7  G7 )

[Segunda Parte]

Cm
   It's getting late to give you up

I took a sip from my devil's cup
Eb        G                   Cm
   Slowly   it's taking over me

(Riff 2)

[Tab - Riff 2]

E|-------------------------8/11----10/14----|
B|------------------------------------------|
G|------------------------------------------|
D|------------------------------------------|
A|-3-3--6p5p3-6---3-6p5p3-------------------|
E|------------------------------------------|

[Pré-Refrão 2]

Cm
   Too high, can't come down

It's in the air

And it's all around
Eb  G                  Cm
      Can you feel me now?

(Riff 1) (Frase 1)

[Refrão]

        Cm
With a taste of your lips
    Eb
I'm on a ride
D7
   You're toxic
Db7
I'm slipping under
        Cm
With a taste of your poison
 Eb
Paradise
       Ab7
I'm addicted to you
            G7
Don't you know that you're toxic?

( Cm  Eb )

       D7
And I love what you do
            Db7
Don't you know that you're toxic?

( Cm  Eb  Ab7 )

            G7 
Don't you know that you're toxic?

( Cm  Eb  D7  Db7 )
( Cm  Eb  Ab7  G7  Cm )

[Refrão]


With a taste of your lips

I'm on a ride
Eb  D7
       You're toxic
Db7
I'm slipping under
        Cm
With a taste of your poison
 Eb
Paradise

(Riff 1)

       Ab7
I'm addicted to you
            G7
Don't you know that you're toxic?

        Cm
With a taste of your lips
    Eb
I'm on a ride
D7
   You're toxic
Db7
I'm slipping under (toxic)
        Cm
With a taste of your poison
 Eb
Paradise

(Riff 1)

       Ab7
I'm addicted to you
            G7
Don't you know that you're toxic?

[Final]

Cm (Frase 2)
   Intoxicate me now
Eb
   With your loving now
D7
   I think I'm ready now
Db7
    I think I'm ready now
Cm (Frase 3)
   Intoxicate me now
Eb
   With your loving now

(Riff 1)

Ab7                       
    I think I'm ready now
Outros vídeos desta música
    393.521 exibições
    • Simplificar cifra
      • ½ Tom
      • Am
      • Bbm
      • Bm
      • Cm
      • C#m
      • Dm
      • Ebm
      • Em
      • Fm
      • F#m
      • Gm
      • G#m
    • Adicionar à lista

    Afinação da cifra

    Afinador online

      0 comentários

      Ver todos os comentários

      Entre para o Cifra Club PRO

      Tenha acesso a benefícios exclusivos no App e no Site

      • Chega de anúncios

      • Badges exclusivas

      • Mais recursos no app do Afinador

      • Atendimento Prioritário

      • Aumente seu limite de lista

      • Ajude a produzir mais conteúdo

      Cifra Club Pro

      Aproveite o Cifra Club com benefícios exclusivos e sem anúncios
      Cifra Club Pro
      Aproveite o Cifra Club com benefícios exclusivos e sem anúncios
      Ops (: Contenido disponible sólo en portugués.
      OK