Cifra Club

Aprenda

Waste

BROCKHAMPTON

Cifra: Principal (violão e guitarra)
tom: G
[Primeira Parte]

A7M     A7M                 A7            A7             D7M
Was I more than it's worth or will you see my name and I'll fade?
D7M
Pitch my camp in your mind
Dm                 Dm
Sat by the fire, behind your eyes
  A7M    A7M            A7                        A7                    D7M
And I'll look through them just once or twice but I might see something I don't like
D7M                        Dm
Like your hands in his shirt
             Dm                    A7M  A7  D7M  Dm
Entwined in cotton, his loving smirk

[Solo]

E|--------------------------------------------------------------------------------|
B|------------17\------10h12--10~-----12h14-12------12h14-----10/12--10-----------|
G|----------------------------------------------14---------14-----------9~--------|
D|--------------------------------------------------------------------------11~~~-|
A|--------------------------------------------------------------------------------|
E|--------------------------------------------------------------------------------|

E|--------------------------------------------------------------------------------|
B|--------------------------------------------------------------------------------|
G|--------------------------------------------------------------------------------|
D|--------------------------------------------12/14---12--11----------------------|
A|-----------12-12/14-16-12-14-16-12-14-16-12------------------14\12~~~-----------|
E|-----12/14----------------------------------------------------------------------|

[Refrão]

 A7M      A7M
Losing my way
A7             A7
Seeing your name
             D7M
But I'll be fine yeah
D7M
Yeah, yeah, yeah
Dm
Yeah, yeah, yeah
Dm
Yeah, yeah, yeah, yeah, yeah, yeah, yeah

(No worries)
A7M        A7M
Losing my way
(Did I come again dressed like a shame?, cloudy)
 A7            A7
Seeing your name
(Eyes are but a pain, roses in my veins, sorry)
             D7M
But I'll be fine yeah

(No worries)
D7M
Yeah, yeah, yeah
(No worries)
 Dm
Yeah, yeah, yeah
(Worries)
 Dm                                     A7M
Yeah, yeah, yeah, yeah, yeah, yeah, yeah

A7M         A7
Ooh, ooh, ooh
A7           D7M
Ooh, ooh, ooh
Ooh
D7M
Oh-oh-oh-oh
Dm
Oh-oh-ooh
Dm          A7M
Oh-oh-oh-ooh
Compositor não encontrado.
Colaboração e revisão:
  • Arielle Coofer
711 exibições
    • ½ Tom
    • A
    • Bb
    • B
    • C
    • Db
    • D
    • Eb
    • E
    • F
    • F#
    • G
    • Ab
  • Adicionar à lista

    0 comentários

    Ver todos os comentários

    Conseguiu tocar?

    1 Tocaram 0 Ainda não

    Grave um vídeo tocando Waste e nos envie!

    00:00 / 00:00
    Outros vídeos desta música
    Repetir Qualidade Automático
    Outros vídeos desta música
    00:00 / 00:00
    Automático

    Cifra Club Pro

    Aproveite o Cifra Club com benefícios exclusivos e sem anúncios
    Cifra Club Pro
    Aproveite o Cifra Club com benefícios exclusivos e sem anúncios
    OK