Cifra Club

Disease Inside

Broder Daniel

Cifra: Principal (violão e guitarra)
Selo Cifra Club: esta cifra foi revisada para atender aos critérios oficiais da nossa Equipe de Qualidade.
tom: D
E|--------------------------------------------------------------|
B|--------------------------------------------------------------|
G|--------------------------------------------------------------|
D|--0-2-4-5--5-5--4-4-4-2--2p0-2p0---0-2-4--4-4-2-2-2-0---------|
A|---------------------------------0----------------------------|
E|--------------------------------------------------------------|

E|--------------------------------------------------------------|
B|--------------------------------------------------------------|
G|----------------------------------------4-----2---------------|
D|--0-2-4-5--5-5--4-4-4-2----------0-2-4----4-2---2-0-----------|
A|-------------------------------0------------------------------|
E|--------------------------------------------------------------|


[Chorus]

E|--------------------------------------------------------------|
B|--------------------------------------------------------------|
G|--------------------------------------------------------------|
D|--5--7--9--7--7-7--7-7-7-7-7--7-9-9-7-7-7-5--5-5--5-5-5-5-5---|
A|--------------------------------------------------------------|
E|--------------------------------------------------------------|

E|---------------------------------------------|
B|---------------------------------------------|
G|---------------------------------------------|
D|--5--7--9--7--7-7--7-7-7-7-7--7-9-9-9--7--5--|
A|---------------------------------------------|
E|---------------------------------------------|

Slinga:

E|--------------------------------------------------------------|
B|--------------------------------------------------------------|
G|--------------------------------------------------------------|
D|--0-2-4-5--5-5--4-4-4-2----------0-2-4--4-4-2-2-2-0-----------| x3
A|-------------------------------0------------------------------|
E|--------------------------------------------------------------|

************************************

| p  Pull-off

************************************

Intro
[Chorus]
[Slinga]
[Chorus]
[Slinga]
[Chorus]
[Slinga]
[Chorus]


[Lyrics]

I can not go where I don't belong
I can not go where I don't belong
I don't belong where I don't feel free
I can't belong where I don't feel free
I can not go where I don't belong
I can not go where I don't belong

I got my eyes on you
ooh ooh ooh
I got my eyes on you

well, I'm a man and I need a maid
I'm a man and I need a maid
but I just can't seem to work it out right
I just can't seem to work it out right
but I just wanna be by somebody's side
I just wanna be by somebody's side

I got my eyes on you
ooh ooh oh ooh
I got my eyes on you

I caught a disease inside
I caught a disease inside
it say's I've got to be free
it say's I've got to be free
that's the disease inside
that's the disease inside

ooh ooh ooh ooh
ooh ooh ooh ooh
ooh ooh ooh ooh
I got my eyes on you
Outros vídeos desta música
    5 exibições
      • ½ Tom
      • A
      • Bb
      • B
      • C
      • Db
      • D
      • Eb
      • E
      • F
      • F#
      • G
      • Ab
    • Adicionar à lista

    Afinação da cifra

    Afinador online

      0 comentários

      Ver todos os comentários

      Entre para o Cifra Club PRO

      Tenha acesso a benefícios exclusivos no App e no Site

      • Chega de anúncios

      • Badges exclusivas

      • Mais recursos no app do Afinador

      • Atendimento Prioritário

      • Aumente seu limite de lista

      • Ajude a produzir mais conteúdo

      Cifra Club Pro

      Aproveite o Cifra Club com benefícios exclusivos e sem anúncios
      Cifra Club Pro
      Aproveite o Cifra Club com benefícios exclusivos e sem anúncios
      Ops (: Contenido disponible sólo en portugués.
      OK