Cifra Club

Aprenda

Back From The Edge

Bruce Dickinson

Cifra: Principal (violão e guitarra)
Já pensou em usar uma coleção de roupas do Cifra Club? Responda as perguntas abaixo e nos ajude nessa missão! →
tom: B
Legend :
b = bend
t = tapping
/ = slide



Intro:

--------------------------0--------------------------------|
------5---5---5---5---5---0---------5---5---5---5----------|
------4---4---4---3---3---1---------3---3---3---3----------|
---2--2---2---2---2---4---2-----2---2---2---2---2----2-----|
-----------------------------------------------------------|
-----------------------------------------------------------|

-----------------------------0-------------------------------|
--5---5---5---5----5----5----0-------------------------------|
--4---4---4---4----3----3----1-------------------------------|
--2---2---2---2----2----4----2-------------------------------|
-------------------------------------------------------------|
-------------------------------------------------------------|

Solo inicial :
  F#                          E

---------------------------------------------------------|
--14b(16)-----14--12--11------12-------------------------|
------------------------------------9----11--------------|
---------------------------------------------------------|
---------------------------------------------------------|
---------------------------------------------------------|
 
E
--12t---7---0----12t---7---0---------------------------------|
--------------------------------12t---7---0----12t--7--0-----|
-------------------------------------------------------------| Gtr: 1
-------------------------------------------------------------|
-------------------------------------------------------------|
-------------------------------------------------------------|

E
-----------------------------------------------------------------|
-----------------------------------------------------------------|
----11t---7----11t--7--------------------------------------------| Gtr: 1
----------------------------12t---6------------------------------|
-----------------------------------------------------------------|
-----------------------------------------------------------------|
a Gtr: 1 repete esses tappings 4 x

F#
----------------|------------------|----------------------|
--12--11---9----|----12--11--------|-----11--12--14-------|
----------------|-------------9----|----------------------| Gtr: 2
----------------|------------------|----------------------|
----------------|------------------|----------------------|
----------------|------------------|----------------------|

--------------------------------|
--12--11------------------------|
-------------9------------------| Gtr: 2
--------------------------------|
--------------------------------|
--------------------------------|

I  silent  river  flowing  black ....
   E                            F#4  F#    E
-------------------------------------------------------------|
-------------------------------------------------------------|
---1----1----1---1----1---1------4----3----1-----------------|
---2----2----2---2----2---2------4----4----2-----------------|
---2----2----2---2----2---2------4----4----2-----------------|
---0----0----0---0----0---0------2----2----0-----------------|

Back from the edge , where the darkness has fled ...
   E       F#
---------------------------------------------------------------|
---------------------------------------------------------------|
---1------3------1------3--------------------------------------|
---2------4------2------4--------------------------------------|
---2------4------2------4--------------------------------------|
---0------2------0------2--------------------------------------|

...and  i`m  falling .... back from the edge ...
  G#m   F#5          
--------------------------------------------------------------|
--------------------------------------------------------------|
--------------------------------1-----3-----------------------|
---6-----4-----6-----8-----9----2-----4-----------------------|
---6-----4-----6-----9-----9----2-----4-----------------------|
---4-----2-----4-----6-----7----0-----2-----------------------|

Now and then i wonder where the faces from my childhood ...
--------------------------------------------------------------|
--------------------------------------------------------------|
---4------3------4------4----3----1---------------------------|
---6------4------6------2----2----2---------------------------|
---6------4------6------2----2----2---------------------------|
---4------2------4------0----0----0---------------------------|

Like father , like son in your bones it lives on .....
--------------------------------------------------------------|
--------------------------------------------------------------|
---4------3------1------3---4---3---3---3---3---3---3---3--3--|
---6------4------2------4---4---4---4---4---4---4---4---4--4--|
---6------4------2------4---4---4---4---4---4---4---4---4--4--|
---4------2------0------2---2---2---2---2---2---2---2---2--2--|

Solo :

----------------------------------------------------------|
----------------------------------------------------------|
---6b(8)----6b(8-)--6---4---4-/-6---4b(6)---4--3-/-1------|
----------------------------------------------------------|
----------------------------------------------------------|
----------------------------------------------------------|

------------------------------------------------------|
------------------------------------------------------|
---3-/-4-3-------------4-/-13----8--13--8--13---------|
--------------6--4------------------------------------|
------------------------------------------------------|
------------------------------------------------------|

--------------------------------------------------------|
--------------------------------------------------------|
--15br(16)---11-/-13---8--13--8--13--8--13--13--15------|
--------------------------------------------------------|
--------------------------------------------------------|
--------------------------------------------------------|

-------------16-------------16-----------18---------19----|
---9-/-16---------9-/-16--------14-/-16--------16---------|
----------------------------------------------------------|
----------------------------------------------------------|
----------------------------------------------------------|
----------------------------------------------------------|

-------18---------19---------18-/-------|
--16--------16---------16---------------|
----------------------------------------|
----------------------------------------|
----------------------------------------|
----------------------------------------|

Back from the edge , back froim the edge , back from the edge...
---------------------------------------------------------------|
---------------------------------------------------------------|
---4-----3-----1-----3----3----3---3---3---3---3---3---3--3----|
---6-----4-----2-----4----4----4---4---4---4---4---4---4--4----|
---6-----4-----2-----4----4----4---4---4---4---4---4---4--4----|
---4-----2-----0-----2----2----2---2---2---2---2---2---2--2----|
Composição de Alex Dickson / Bruce Dickinson
Colaboração e revisão:
  • benedito neto
2.350 exibições
    • ½ Tom
    • A
    • Bb
    • B
    • C
    • Db
    • D
    • Eb
    • E
    • F
    • F#
    • G
    • Ab
  • Adicionar à lista

    0 comentários

    Ver todos os comentários

    Conseguiu tocar?

    0 Tocaram 0 Ainda não

    Grave um vídeo tocando Back From The Edge e nos envie!

    00:00 / 00:00
    Outros vídeos desta música
    Repetir Qualidade Automático
    Outros vídeos desta música
    00:00 / 00:00
    Automático

    Cifra Club Pro

    Aproveite o Cifra Club com benefícios exclusivos e sem anúncios
    Cifra Club Pro
    Aproveite o Cifra Club com benefícios exclusivos e sem anúncios
    OK