Cifra Club

Aprenda

Broken

Bruce Dickinson

Cifra: Principal (violão e guitarra)
Já pensou em usar uma coleção de roupas do Cifra Club? Responda as perguntas abaixo e nos ajude nessa missão! →
tom: C
Legend :
Gtr I = guitarra 1
Gtr II = guitarra 2
h.a. = harmonica artificial
/ = slide



Intro :

  E      C/G         G          A        Bm
-----------------------------------------------------------------------|
-----------------------------------------------------------------------|
--9-------5-------------------------------4----------------------------|
--9-------5----------5----------7---------4----------------------------|
--7-------3----------5----------7---------2----------------------------|
--0-------3----------3----------5--------------------------------------|

Solo da intro :

-----------------------------------------------------------------------|
-------8--7--8---10---8--7--8---------8--7--8--10--8--7--8-------------|
---9-----------------------------9---------------------------9---------|  Gtr : I
-----------------------------------------------------------------------|
-----------------------------------------------------------------------|
-----------------------------------------------------------------------|

-----------------------------------------------------------------------|
---------12--10--12--13--12--10--12---------12--10--12--13-------------|
----12--------------------------------12-------------------------------| Gtr: II
-----------------------------------------------------------------------|
-----------------------------------------------------------------------|
-----------------------------------------------------------------------|

--------------------------7--8--7---------7----------------------------|
---8--7--8--10--8--7--8-------------10--------10--8--7-------8---------|
---------------------------------------------------------9-------------| Gtr: I
-----------------------------------------------------------------------|
-----------------------------------------------------------------------|
-----------------------------------------------------------------------|

---------------------------------------------------10--12--------------|
---12--10--12--------12--10--12--13--12--10--12------------------------|
----------------12-----------------------------------------------------| Gtr: II
-----------------------------------------------------------------------|
-----------------------------------------------------------------------|
-----------------------------------------------------------------------|

-----------------------------------------------------------------------|
--7--8--10--8--7--8--------8--7--8--10--8--7--8-------8--7--8----------|
----------------------9---------------------------9--------------------| Gtr: I
-----------------------------------------------------------------------|
-----------------------------------------------------------------------|
-----------------------------------------------------------------------|

---10-------10---------------------------------------------------------|
--------13-------13--12--10--------12--10--12--13--12--10--------------|
------------------------------12---------------------------------------| Gtr: II
-----------------------------------------------------------------------|
-----------------------------------------------------------------------|
-----------------------------------------------------------------------|
                                  h.a
------------------7--8--7----------7-----------------------------------|
--10--8--7--8----------------10----------------------------------------|
-----------------------------------------------------------------------| Gtr: I
-----------------------------------------------------------------------|
-----------------------------------------------------------------------|
-----------------------------------------------------------------------|

-----------------------------------------------------------------------|
--12-------12--10--12--13--12--10--12--------12--10--12----------------|
-------12-------------------------------12-----------------------------| Gtr: II
-----------------------------------------------------------------------|
-----------------------------------------------------------------------|
-----------------------------------------------------------------------|
                                         
                                         h.a
---------------------10--12--10----------10----------------------------|
---13--12--10--12------------------12----------------------------------|
-----------------------------------------------------------------------| Gtr: II
-----------------------------------------------------------------------|
-----------------------------------------------------------------------|
-----------------------------------------------------------------------|

Riff
-----------------------------------------------------------------------|
-----------------------------------------------------------------------|
-------------------------------------4--------------5------------------|
------------------2------------------4--------------5------------------|
------------------2------------------2--------------3------------------|
---0--0--0--0----------0--0--0--0----------0--0-----3----0--0--0--0----|

-----------------------------------------------------------------------|
-----------------------------------------------------------------------|
---------------------5-------------------------------------------------|
---2-----------------5---------------5-------------------2-------------|
---2-----------------3---------------5-------------------2-------------|
-------0--0--0--0--------0--0--------3----0--0--0--0----------0-0------|

-----------------------------------------------------------------------|
-----------------------------------------------------------------------|
----------4-----------5--------------------------------------5---------|
----------4-----------5------------------2-------------------5---------|
----------2-----------3------------------2-------------------3---------|
--0--0--------0--0---------0--0--0--0---------0--0--0--0-----3-----0---|

-----------------------------------------------------------------------|
-----------------------------------------------------------------------|
-----------------------------------------------------------------------|
--------0--------------------------------------------------------------|
--------0--------------------------------------------------------------|
--0--------------------------------------------------------------------|


I  will  not  be  pushed , i  will  not  be  stamped  defiled ...

---0--0--0--0--0--0--0--0--7--0--0--5--0--0--3---0--0--0--0------------|
-----------------------------------------------------------------------|
-----------------------------------------------------------------------|
-----------------------------------------------------------------------|
-----------------------------------------------------------------------|
-----------------------------------------------------------------------|

--0--0--0-------3----------2------------2---3-----0--0--0--0--0--------|
------------1----------1------------1----------------------------------|
-------------------0------------0--------------------------------------|
-----------------------------------------------------------------------|
-----------------------------------------------------------------------|
-----------------------------------------------------------------------|

--0--0--0--7--0--0--5--0--0--3--0--0--0---7--0--5--0--2--0-------------|
-----------------------------------------------------------------------|
-----------------------------------------------------------------------|
-----------------------------------------------------------------------|
-----------------------------------------------------------------------|
-----------------------------------------------------------------------|

--3--0--0--2--0--0--2--3-----------------------------------------------|
-----------------------------------------------------------------------|
-----------------------------------------------------------------------|
-----------------------------------------------------------------------|
-----------------------------------------------------------------------|
-----------------------------------------------------------------------|


Chorus :
I  satnd  alone  now  i  can  see ..

-----------------------------------------------------------------------|
-----------------------------------------------------------------------|
------------5-----2------5--4--2--4--5--4--2--4------------------------| Gtr: I
----2-------5-----2----------------------------------------------------|
----2-------3-----0----------------------------------------------------|
----0-------3----------------------------------------------------------|

-----------------------------------------------------------------------|
-----------------------------------------------------------------------|
-----------------------------------------------------------------------| Gtr: II
--------------------------7--5--4--5--7--5--4--5-----------------------|
-----------------------------------------------------------------------|
-----------------------------------------------------------------------|

You  won`t  bring  me  down ...
                                                 h.a
-----------------------------------------------------------------------|
-----------------------------------------------------------------------|
----------5-----2------------0---2---4---2---4----5--------------------| Gtr: 1
---2------5-----2------------------------------------------------------|
---2------3-----0------------------------------------------------------|
---0------3------------------------------------------------------------|

                                                   h.a
-----------------------------------------------------------------------|
-----------------------------------------------------------------------|
----------------------------------------------------2------------------| Gtr: II
----------------------------0---2---5---4---5--------------------------|
-----------------------------------------------------------------------|
-----------------------------------------------------------------------|

For  all  this  pain  and  misery ,   i`m  not  broken...

-----------------------------------------------------------------------|
-----------------------------------------------------------------------|
--------5------2----------------5-----2--------------------------------|
---2----5------2---------2------5-----2-------------3----------3-------|
---2----3------0---------2------3-----0-------------3----------3-------|
---0----3----------------0------3------------0--0-------0--0-----------|

-----------------------------------------------------------------------|
-----------------------------------------------------------------------|
-----------------------------------------------------------------------|
-----------------------------------------------------------------------|
---2---2-------2---2---2---2---2-------2---2---2-------2---2-----------|
---0---0-------0---0---0---0---0-------0---0---0-------0---0-----------|

-----------------------------------------------------------------------|
-----------------------------------------------------------------------|
--------------------------------5--------------------------------------|
--------------------------------5--------------------------------------|
--2---2---2---2--------2--------3----------2----2-------2---2---2------|
--0---0---0---0--------0--------3----------0----0-------0---0---0------|

-----------------------------------------------------------------------|
-----------------------------------------------------------------------|
-----------------------------------------------------------------------|
-----------------------------------------------------------------------|
--2---2-------2---2---2--------2---2---2---2-------2-------------------|
--0---0-------0---0---0--------0---0---0---0-------0-------------------|

-----------------------------------------------------------------------|
-----------------------------------------------------------------------|
---5--/--7--/--5-------------------------------------------------------|
---5--/--7--/--5-------------------------------------------------------|
---3--/--5--/--3-------------------------------------------------------|
---3--/--5--/--3-------------------------------------------------------|

I`m   a  not  a  pawn , this  is  not  a  game  of  chess ...

-----------------------------------------------------------------------|
-----------------------------------------------------------------------|
-----------------------------------------------------------------------| Gtr: 1
-----------------------------------------------------------------------|
---2---2-------2---2---2---2---2-------2---2---2-------2---2-----------|
---0---0-------0---0---0---0---0-------0---0---0-------0---0-----------|

---0--0--0--0--0--0--0--0--7--0--0--5--0--0--3---0--0--0--0------------|
-----------------------------------------------------------------------|
-----------------------------------------------------------------------| Gtr: II
-----------------------------------------------------------------------|
-----------------------------------------------------------------------|
-----------------------------------------------------------------------|

-----------------------------------------------------------------------|
-----------------------------------------------------------------------|
--------------------------------5--------------------------------------| Gtr: 1
--------------------------------5--------------------------------------|
--2---2---2---2--------2--------3----------2----2--------2---2---2-----|
--0---0---0---0--------0--------3----------0----0--------0---0---0-----|

--0--0--0-------3----------2------------2---3-----0--0--0--0--0--------|
------------1----------1------------1----------------------------------|
-------------------0------------0--------------------------------------| Gtr: II
-----------------------------------------------------------------------|
-----------------------------------------------------------------------|
-----------------------------------------------------------------------|

-----------------------------------------------------------------------|
-----------------------------------------------------------------------|
-----------------------------------------------------------------------| Gtr: 1
-----------------------------------------------------------------------|
--2---2-------2---2---2--------2---2---2---2-------2-------------------|
--0---0-------0---0---0--------0---0---0---0-------0-------------------|

--0--0--0--7--0--0--5--0--0--3--0--0--0---7--0--5--0--2--0-------------|
-----------------------------------------------------------------------|
-----------------------------------------------------------------------| Gtr: II
-----------------------------------------------------------------------|
-----------------------------------------------------------------------|
-----------------------------------------------------------------------|

-----------------------------------------------------------------------|
-----------------------------------------------------------------------|
---5--/--7--/--5-------------------------------------------------------| Gtr: 1
---5--/--7--/--5-------------------------------------------------------|
---3--/--5--/--3-------------------------------------------------------|
---3--/--5--/--3-------------------------------------------------------|

--3--0--0--2--0--0--2--3-----------------------------------------------|
-----------------------------------------------------------------------|
-----------------------------------------------------------------------| Gtr: II
-----------------------------------------------------------------------|
-----------------------------------------------------------------------|
-----------------------------------------------------------------------|

Chorus :
I  satnd  alone  now  i  can  see ..

-----------------------------------------------------------------------|
-----------------------------------------------------------------------|
------------5-----2------5--4--2--4--5--4--2--4------------------------| Gtr: 1
----2-------5-----2----------------------------------------------------|
----2-------3-----0----------------------------------------------------|
----0-------3----------------------------------------------------------|

-----------------------------------------------------------------------|
-----------------------------------------------------------------------|
-----------------------------------------------------------------------| Gtr: II
--------------------------7--5--4--5--7--5--4--5-----------------------|
-----------------------------------------------------------------------|
-----------------------------------------------------------------------|

You  won`t  bring  me  down ...
                                                 h.a
-----------------------------------------------------------------------|
-----------------------------------------------------------------------|
----------5-----2------------0---2---4---2---4----5--------------------| Gtr: 1
---2------5-----2------------------------------------------------------|
---2------3-----0------------------------------------------------------|
---0------3------------------------------------------------------------|

                                                   h.a
-----------------------------------------------------------------------|
-----------------------------------------------------------------------|
----------------------------------------------------2------------------| Gtr: II
----------------------------0---2---5---4---5--------------------------|
-----------------------------------------------------------------------|
-----------------------------------------------------------------------|

For  all  this  pain  and  misery ,   i`m  not  broken...

-----------------------------------------------------------------------|
-----------------------------------------------------------------------|
--------5------2-----------------5-----2-------------------------------|
---2----5------2----------2------5-----2-------------2----------2------|
---2----3------0----------2------3-----0-------------0----------0------|
---0----3-----------------0------3------------0--0-------0--0----------|

All  the  hatred  cant  you  see ...
------------------------------------------------------------------------|
------------------------------------------------------------------------|
------------5-----2------5--4--2--4--5--4--2--4-------------------------| Gtr: 1
----2-------5-----2-----------------------------------------------------|
----2-------3-----0-----------------------------------------------------|
----0-------3-----------------------------------------------------------|

-----------------------------------------------------------------------|
-----------------------------------------------------------------------|
-----------------------------------------------------------------------| Gtr: II
--------------------------7--5--4--5--7--5--4--5-----------------------|
-----------------------------------------------------------------------|
-----------------------------------------------------------------------|


You  won`t  bring  me  down ...

                                                 h.a
-----------------------------------------------------------------------|
-----------------------------------------------------------------------|
----------5-----2------------0---2---4---2---4----5--------------------| Gtr: 1
---2------5-----2------------------------------------------------------|
---2------3-----0------------------------------------------------------|
---0------3------------------------------------------------------------|

                                                   h.a
-----------------------------------------------------------------------|
-----------------------------------------------------------------------|
----------------------------------------------------2------------------| Gtr: II
----------------------------0---2---5---4---5--------------------------|
-----------------------------------------------------------------------|
-----------------------------------------------------------------------|

For  all  this  pain  and  misery ,   i`m  not  broken...

-----------------------------------------------------------------------|
-----------------------------------------------------------------------|
--------5------2----------------5-----2--------------------------------|
---2----5------2---------2------5-----2-------------3---------3--------|
---2----3------0---------2------3-----0-------------3---------3--------|
---0----3----------------0------3------------0--0------0--0------------|


Riff :
Oh , oh oh oh ...


--------------------------------------------------------------------|
--------------------------------------------------------------------|
-----2--------------2------------2----------2-----------------------| Gtr: 1
-----2------3-------2------5-----2----3-----2----5------------------|
-----0------3-------0------5-----0----3-----0----5------------------|
------------1--------------3----------1----------3------------------|

--------------------------------------------------------------------|
--------------------------------------------------------------------|
---9-----------9-----------9----------9-----------9-----------------| Gtr: II
-------7-----------7-----------7----------7-----------7-------------|
-----------0-----------0----------0----------0------------0---------|
--------------------------------------------------------------------|

--------------------------------------------------------------------|
--------------------------------------------------------------------|
--10------------10------------10------------10------------10--------| Gtr: II
-------9--10---------9--10--------9-10------------9--10-------------|
--------------------------------------------------------------------|
--------------------------------------------------------------------|

--------------------------------------------------------------------|
--------------------------------------------------------------------|
---9-----------9-----------9----------9-----------9-----------------| Gtr: II
-------7-----------7-----------7----------7-----------7-------------|
-----------0-----------0----------0----------0------------0---------|
--------------------------------------------------------------------|

--------------------------------------------------------------------|
--8----------8---------8-------------8------------8-----------------|
-----7----------7----------7-------------7------------7-------------|Gtr: II
--------5----------5-----------5------------5-------------5---------|
--------------------------------------------------------------------|
--------------------------------------------------------------------|
Volta no solo da intro e depois chorus ...
Composição de Bruce Dickinson / Roy Z
Colaboração e revisão:
  • benedito neto
2.584 exibições
    • ½ Tom
    • A
    • Bb
    • B
    • C
    • Db
    • D
    • Eb
    • E
    • F
    • F#
    • G
    • Ab
  • Adicionar à lista

    0 comentários

    Ver todos os comentários

    Conseguiu tocar?

    0 Tocaram 0 Ainda não

    Grave um vídeo tocando Broken e nos envie!

    00:00 / 00:00
    Outros vídeos desta música
    Repetir Qualidade Automático
    Outros vídeos desta música
    00:00 / 00:00
    Automático

    Cifra Club Pro

    Aproveite o Cifra Club com benefícios exclusivos e sem anúncios
    Cifra Club Pro
    Aproveite o Cifra Club com benefícios exclusivos e sem anúncios
    OK