Cifra Club

Aprenda

Chemical Wedding

Bruce Dickinson

Cifra: Principal (violão e guitarra)
tom: G
Intro: (Em D C# C D Em D C# C Eb) 

Verse 

  Em                   C
------------0---------------------------------
-------0------0-------------------------------
-----0---0------3-0------------0--------------
--2----------------------2-4-2---4-2----------
-----------------------3--------------3-------
----------------------------------------------

      Em 
How happy is the human soul 
C 
Not enslaved by dull control 
Em 
Left to dream and roam and play 
C 
Shed the guild of former days 
Em 
Walking on the foggy shore 
C 
Watch the waves come rolling home 
Em 
Through the veil of pale moonlight 
       C 
My shadow stretches out its hands 
Em   D     G 
And so we lay 
  C                  Em 
We lay in the same grave 
   D           Em        D    A D 
Our chemical wedding day 
Em   D     G 
And so we lay 
   C                  Em 
We lay in the same grave 
     D           Em 
Our chemical wedding day 
Em D C# C D Em D C# C Eb 
Em                       C 
Floating in the endless blue 
   Em                        C 
My seed of doubt I leave to you 
Em 
Let in wither on the ground 
C 
Treat it like plague you found 
Em 
All my dreams that were outside 
   C 
In living colour, now alive 
D             C 
And all the lighthouses 
      D 
Their beams converge 
  C           D 
To guide me home 
Em   D       G 
And so we lay 
  C                 Em 
We lay in the same grave 
   D           Em     D    A D 
Our chemical wedding day 
Em   D     G 
And so we lay 
  C                 Em 
We lay in the same grave 
    D           Em 
Our chemical wedding day 

Solo:
Am    Em    D    B4/7  B  Em 

-8-8-8-8-5-5-5-5-----------------8-8-8-8-5-5-5-5-----------------
-----------------5-5-5-5-------------------------4-4-4-4---------
-------------------------5-5-5-5-------------------------5-5-5-5-
----------------------------------------------------------------- 
----------------------------------------------------------------- 
-----------------------------------------------------------------

--7-7-7-7------------------------
-----------8-8-8-8---------------
----------------9-9-9-9----------
------------------------9-9-9-9--
---------------------------------
---------------------------------

12-9-----9--------9-------------------------------------------------------- 
------11---11--------11-----11------11-------------------------------------
--------------12--------12-----12-9----12-9-12-9-------12-9----9-----------
---------------------------------------------------11-------11---11--------
--------------------------------------------------------------------10-----
---------------------------------------------------------------------------

----------------------------------------------------------------
-15-----------------15----15------------------------15----------
----14-11----11-14-----14----14-11----11-14------14-------------
----------12--------------------------------12------------------ 
----------------------------------------------------------------
----------------------------------------------------------------

-10-7--7------7------------------------------------------------- 
------9--9------9----9------9----------------------------------- 
-----------10-----10---10-7---10-7-10-7--10-7----7--------------
-----------------------------------------------9------9--9------ 
------------------------------------------------------------8--- 
---------------------------------------------------------------- 

---------------------------------------------------------------- 
-13---------------13----13-----------------------13------------- 
----12-9----9-12-----12------12-9----9-12------12---------------
---------10--------------------------------10-------------------
----------------------------------------------------------------
----------------------------------------------------------------


daí tem um final estranho...


Em  D       G 
And so we lay 
   C                    Em 
We lay in the same grave 
  D           Em       D    A D 
Our chemical wedding day 
Em   D      G 
And so we lay 
  C                   Em 
We lay in the same grave 
    D           Em 
Our chemical wedding day 
Em  D      G 
And so we lay 
  C                   Em 
We lay in the same grave 
    D           Em      D    A D 
Our chemical wedding day 
Em  D      G 
And so we lay 
   C                Em 
We lay in the same grave 
   D           Em 
Our chemical wedding day 
 
Composição de Bruce Dickinson / Roy Z
Colaboração e revisão:
  • Carlos Eduardo
18.761 exibições
    • ½ Tom
    • A
    • Bb
    • B
    • C
    • Db
    • D
    • Eb
    • E
    • F
    • F#
    • G
    • Ab
  • Adicionar à lista

    0 comentários

    Ver todos os comentários

    Conseguiu tocar?

    0 Tocaram 0 Ainda não

    Grave um vídeo tocando Chemical Wedding e nos envie!

    00:00 / 00:00
    outros vídeos desta música
    repetir qualidade Automático
    Outros vídeos desta música
    00:00 / 00:00
    Automático

    Cifra Club Pro

    Aproveite o Cifra Club com benefícios exclusivos e sem anúncios
    Cifra Club Pro
    Aproveite o Cifra Club com benefícios exclusivos e sem anúncios
    OK