Cifra Club

Aprenda

Omega

Bruce Dickinson

Cifra: Principal (violão e guitarra)
tom: D
Riff 1: (with clean sound)
E|--0--0-0-0--0-0-0--0-0--0--2--2-2-2--2-2-2--2-2-2
B|--0--0-0-0--0-0-0--0-0--1--3--3-3-3--3-3-3--3-3-3
G|--0--0-0-0--0-0-0--0-0--0--2--2-2-2--2-2-2--2-2-2
D|--2--2-2-2--2-2-2--2-2--2--0--0-0-0--0-0-0--0-0-0
A|--2--2-2-2--2-2-2--2-2--3--0--0-0-0--0-0-0--0-0-0
E|--0--0-0-0--0-0-0--0-0--0--0--0-0-0--0-0-0--0-0-0

E|--2-2-2--0-0-0--0-0-0--0-0-0--0-0-0--2-2-2--2-2-2-
B|--3-3-3--0-0-0--0-0-0--0-0-0--0-0-0--3-3-3--3-3-3-
G|--2-2-2--0-0-0--0-0-0--0-0-0--0-0-0--2-2-2--2-2-2-
D|--0-0-0--2-2-2--2-2-2--2-2-2--2-2-2--0-0-0--0-0-0-
A|--0-0-0--2-2-2--2-2-2--2-2-2--2-2-2--0-0-0--0-0-0-
E|--0-0-0--0-0-0--0-0-0--0-0-0--0-0-0--0-0-0--0-0-0-

E|--2-2-2--2--2-2-----------------------------------
B|--3-3-3--3--3-3-----------------------------------
G|--2-2-2--4--4-4-----------------------------------
D|--0-0-0--4--4-4-----------------------------------
A|--0-0-0--2--2-2-----------------------------------
E|--0-0-0--2--2-2-----------------------------------

Riff 2: (with heavy distortion)

"...i guess they lied..."
E|--------------------------------------------
B|--------------------------------------------
G|--------------------------------------------
D|------------5------5------4------7-------5--
A|------------3--3-3-3--3-3-3--3-3-3--3-3--3--
E|--------------------------------------------

E|---------------------------------------------
B|---------------------------------------------
G|---------------------------------------------
D|------5------4------7-------9------9------7--
A|--3-3-3--3-3-3--3-3-3-------7--7-7-7--7-7-7--
E|---------------------------------------------

E|---------------------------------------------
B|---------------------------------------------
G|---------------------------------------------
D|-----10-----9------9------7------10----------
A|-7-7-7--7-7-7--7-7-7--7-7-7--7-7-7--7-7------
E|---------------------------------------------

E|---------------------------------------------
B|---------------------------------------------
G|---------------------------------------------
D|-5------5------4------7-------5------5------4
A|-3--3-3-3--3-3-3--3-3-3--3-3--3--3-3-3--3-3-3
E|---------------------------------------------

E|---------------------------------------------
B|---------------------------------------------
G|---------------------------------------------
D|------7--------------------------------------
A|--3-3-3--------------------------------------
E|---------------------------------------------

Bridge 1:
E|---------------------------------------------
B|---------------------------------------------
G|---------------------------------------------
D|-------------------7-------------------------
A|--7----------------5-------------------------
E|--5------------------------------------------

Solo 1: (with clean sound)
E|---------------------------------------------
B|---17b(18)-17b(18)------------------17-15----
G|-------------------------------14h16------16-
D|---------------------------------------------
A|---------------------------------------------
E|---------------------------------------------

E|---------------------------------------------
B|---------------------------------------------
G|-14-16-14------------------------------------
D|---------17-14-17-14--17-12-14---------------
A|------------------------------------12h14----
E|---------------------------------------------

E|---------------------------------------------
B|---------------------------------------------
G|---------------------------------------------
D|--12p14-12p14-12*----------------------------
A|---------------------------------------------
E|---------------------------------------------

Bridge 2: (with heavy distortion)
E|---------------------------------------------
B|---------------------------------------------
G|---------------------------------------------
D|-------------------4--5--4--5--4--5--4--5----
A|-7---7--7---7------2--3--2--3--2--3--2--3----
E|-5---5--5---5--------------------------------

Chorus Riff: (repeat it)
E|---------------------------------------------
B|---------------------------------------------
G|---------------------------------------------
D|--7--9-9--7--12--7--9---7--7-7--7--12--7--9--
A|--5--7-7--5--10--5--7---5--9-9--5--10--5--7--
E|---------------------------------------------

E|---------------------------------------------
B|---------------------------------------------
G|---------------------------------------------
D|---5----9----7----11-------------------------
A|---3----7----5----9--------------------------
E|---------------------------------------------

E|---------------------------------------------
B|---------------------------------------------
G|---------------------------------------------
D|--7--9-9--7--12--7--9---7--7-7--7--12--7--9--
A|--5--7-7--5--10--5--7---5--9-9--5--10--5--7--
E|---------------------------------------------

E|---------------------------------------------
B|---------------------------------------------
G|---------------------------------------------
D|---5----9----7----4-------------------------
A|---3----7----5----2--------------------------
E|---------------------------------------------

Solo 2:
E|---------------------------------------------
B|---------------------------------------------
G|---/4*------4h5--4*------4-------------------
D|----------------------------7--5--7----------
A|------------------------------------5*-------
E|---------------------------------------------

E|-----------------------------------------------
B|-----------------------------------------------
G|--------------------------12----14/16---14p12--
D|---------------------12/14--14---------------14
A|-5p7-5p7---------------------------------------
E|----------5/-----------------------------------

E|---------------------------------------------
B|---------------------------------------------
G|--14/16-14/16*----16/17-16-14---12h14--------
D|---------------------------------------------
A|---------------------------------------------
E|---------------------------------------------

E|---------------------------------------------
B|----------------------------------------12/17
G|--14/16*----14-12-14---------------9/12------
D|---------------------12*---------------------
A|---------------------------------------------
E|---------------------------------------------

E|---------------------------------------------
B|---12/19---------15/17*--15p12-15/17-15/17*--
G|-12------------------------------------------
D|---------------------------------------------
A|---------------------------------------------
E|---------------------------------------------

E|----------------------------17-----------------
B|-17-19-20b*----19---17---19-----15*-------17/19
G|-------------------------------------15/17-----
D|-----------------------------------------------
A|-----------------------------------------------
E|-----------------------------------------------

E|--------14-------------------------------------
B|-----12------------17-17b*-------17-19-17-15-17
G|-----------------14----------------------------
D|-----------------------------------------------
A|-12*-------12*/--------------------------------
E|-----------------------------------------------
                  pm

E|---------------------------------------------
B|-15------------------------------------------
G|---14-16-15-14-12----------------------------
D|-----------------14-13-12--12---12-----------
A|-----------------------------14-----14---12*/
E|---------------------------------------------

E|-17-19-20-19-17-15-17*----15--14---22*-------
B|---------------------------------------------
G|---------------------------------------------
D|---------------------------------------------
A|---------------------------------------------
E|---------------------------------------------

SOLO:
E|-----------------------------------------------
B|--8b*------8-8--8--8-8-------------------------
G|--7b*------7-7--7--7-7---7p5----------------5--
D|-----------------------------7-7--------5-7---7
A|-------------------------------------5-7-------
E|-----------------------------------------------

E|---------------------------------------------
B|---------------------------------------------
G|-----7-8--5-7-8--9-8-8-9h10-8-9--8-8-9-------
D|-5-7-----------------------------------------
A|---------------------------------------------
E|---------------------------------------------

E|-----------------------------------------8---
B|-------------------------8-10*---10-8-10---10
G|-9p8p7-9p8p7-9p8p7-9p8p7---------------------
D|---------------------------------------------
A|---------------------------------------------
E|---------------------------------------------

E|---------------------------------------14-17-
B|-8-10--8-10--------------------------15------
G|------------9-7--5-7-9-7-5---------16--------
D|---------------------------------16----------
A|----------------------------14-17------------
E|---------------------------------------------

E|14------------------19-22-19-----------------
B|---15----------15-19--------19-15------------
G|-----16-14-16------------------------/7-7-7--
D|---------------------------------------------
A|-------------------------------------*5-5-5--
E|---------------------------------------------

E|---------------------------------------------
B|---------------------------------------------
G|-/6-6-6--/9-9-9--/7-7-7---/101010-9-9-9-7----
D|---------------------------------------------
A|-/4-4-4--/7-7-7--/5-5-5---/8-8-8--7-7-7-5----
E|---------------------------------------------

E|---------------------------------------------
B|--0h16h17-0h16h17----17h18-17-15----15---15--
G|----------------------------------16---16----
D|---------------------------------------------
A|---------------------------------------------
E|---------------------------------------------

E|------------12----12-14-12-14-15-----------12
B|---12-14-15----15-----------------12-14-15---
G|---------------------------------------------
D|---------------------------------------------
A|---------------------------------------------
E|---------------------------------------------

E|----12-14-12-14-15--17--19-17-14-17-14-----14
B|-15-------------------------------------17---
G|---------------------------------------------
D|---------------------------------------------
A|---------------------------------------------
E|---------------------------------------------

E|---------------------------------------------
B|-17--15-17-15-----15-------------------------
G|---------------16----16--14-16-14--12-14-12--
D|---------------------------------------------
A|---------------------------------------------
E|---------------------------------------------

E|---------------------------------------------
B|---------------------------------------------
G|--11-12-14-11*---11--12--14-14-----11--------
D|---------------------------------------------
A|---------------------------------------------
E|---------------------------------------------

E|---------------------------------------------
B|---17-15----15*--15-------------15-12-15-12--
G|---------16---------16-14-16*----------------
D|---------------------------------------------
A|---------------------------------------------
E|---------------------------------------------

E|---------------------------------------------
B|---12----------------------------------------
G|14----14--12-14-12-----12--------------------
D|--------------------14----14--12-14-12-----12
A|----------------------------------------14---
E|---------------------------------------------

E|---------------------------------------------
B|---------------------------------------------
G|---------------------------------------------
D|---------------------------------------------
A|14--12-14-12----/9-----7----------------5----
E|------------------10*----7*-------5-7-8----8-
                                  pm ........

E|---------------------------------------------
B|---------------------------------------------
G|----------------------------------4----4-5-7-
D|-------------------5----5-7---5-7----7-------
A|-5-7---5-7-8--5-7-8---8-----8----------------
E|-----8---------------------------------------
pm..............pm..........pm...............

E|-----------------------------------10--------
B|-------------5-------7-8-10-7-8-7-----12-12*-
G|-4-5-7-4-5-7---7-9-7-------------------------
D|---------------------------------------------
A|---------------------------------------------
E|---------------------------------------------
pm..(...pm fading away...)......

E|----10----------------/12-10-10*-------------
B|-12-----12*--10-10*--------------------------
G|----------------------------------14-16-17-19
D|---------------------------------------------
A|---------------------------------------------
E|---------------------------------------------

E|---------------------------------------------
B|---------------------------------------------
G|-14-16-17-19---14-16-17-19---14-16-17-19-----
D|---------------------------------------------
A|---------------------------------------------
E|---------------------------------------------

Riff 3:
E|---------------------------------------------
B|---------------------------------------------
G|---------------------------------------------
D|--7-7-----7-7------------7-7-----7-7---------
A|--5-5-----5-5--6-5-2-1---5-5-----5-5--6-5-2-1
E|------0-0------4-3-0-3-------0-0------4-3-0-3

E|---------------------------------------------
B|---------------------------------------------
G|---------------------------------------------
D|--7-7-----7-7------------7-7-----7-7---------
A|--5-5-----5-5--6-5-2-1---5-5-----5-5--6-5-2-1
E|------0-0------4-3-0-3-------0-0------4-3-0-3

          "...Take a look at your future..."
E|---------------------------------------------
B|---------------------------------------------
G|---------------------------------------------
D|---5-5-5-5-5---------------------------------
A|---3-3-3-3-3---------------------------------
E|---------------------------------------------

E|---------------------------------------------
B|---------------------------------------------
G|-------4**-2**-5**--------4**-2**-5**-----4**
D|--/5**----------------5**-------------5**----
A|---------------------------------------------
E|---------------------------------------------

E|---------------------------------------------
B|-----------5**-------------5**---------------
G|-2**-5**-------4**-2**-5**-----4**-2**-5**---
D|-----------2**-------------2**---------------
A|---------------2**-0**-3**-----2**-0**-3**---
E|---------------------------------------------

Riff 4: this is the other guitar, it is played
along with the SOLO
E|---------------------------------------------
B|---------------------------------------------
G|---------------------------------------------
D|--2---------2---------5-5-5-7-7-7-8-8-8-7-7-7
A|--0--0-0-0--0--0-0-0--3-3-3-5-5-5-6-6-6-5-5-5
E|---------------------------------------------

E|---------------------------------------------
B|---------------------------------------------
G|---------------------------------------------
D|--2---------2---------8-8-8-7-7-7-4-4-4-7-7-7
A|--0--0-0-0--0--0-0-0--6-6-6-5-5-5-2-2-2-5-5-5
E|---------------------------------------------

E|---------------------------------------------
B|---------------------------------------------
G|---------------------------------------------
D|--2---------2---------5-5-5-7-7-7-8-8-8-7-7-7
A|--0--0-0-0--0--0-0-0--3-3-3-5-5-5-6-6-6-5-5-5
E|---------------------------------------------

E|---------------------------------------------
B|---------------------------------------------
G|---------------------------------------------
D|--2---------2---------8-8-8-7-7-7-4-4-4-7-7-7
A|--0--0-0-0--0--0-0-0--6-6-6-5-5-5-2-2-2-5-5-5
E|---------------------------------------------

E|---------------------------------------------
B|---------------------------------------------
G|---------------------------------------------
D|--4---------4---------7-7-7-9-9-9-1010109-9-9
A|--2--2-2-2--2--2-2-2--5-5-5-7-7-7-8-8-8-7-7-7
E|---------------------------------------------

E|---------------------------------------------
B|---------------------------------------------
G|---------------------------------------------
D|--4---------4---------1010109-9-9-7-7-7-9-9-9
A|--2--2-2-2--2--2-2-2--8-8-8-7-7-7-5-5-5-7-7-7
E|---------------------------------------------

E|---------------------------------------------
B|---------------------------------------------
G|---------------------------------------------
D|--4---------4---------7-7-7-9-9-9-1010109-9-9
A|--2--2-2-2--2--2-2-2--5-5-5-7-7-7-8-8-8-7-7-7
E|---------------------------------------------

E|---------------------------------------------
B|---------------------------------------------
G|---------------------------------------------
D|--4---------4---------1010109-9-9-7-7-7-9-9-9
A|--2--2-2-2--2--2-2-2--8-8-8-7-7-7-5-5-5-7-7-7
E|---------------------------------------------

repeat 4 times
E|---------------------------------------------
B|---------------------------------------------
G|---------------------------------------------
D|---------4-5------7-------4--7---------------
A|--2------2-3------5-------2--5---------------
E|--0----0-------------------------------------

Ordem da musica
Riff 1
Riff 2
Bridge 1
Solo 1(Riff 1)
Riff 1
Riff 2
Bridge 2
Chorus Riff
Solo 2
SOLO(Riff 4)
Riff 3
Bridge 2
Chorus Riff
Composição de Bruce Dickinson / Roy Z
Colaboração e revisão:
  • Maurcio esquiavoi
12.363 exibições
    • ½ Tom
    • A
    • Bb
    • B
    • C
    • Db
    • D
    • Eb
    • E
    • F
    • F#
    • G
    • Ab
  • Adicionar à lista

    0 comentários

    Ver todos os comentários

    Conseguiu tocar?

    0 Tocaram 0 Ainda não

    Grave um vídeo tocando Omega e nos envie!

    00:00 / 00:00
    outros vídeos desta música
    repetir qualidade Automático
    Outros vídeos desta música
    00:00 / 00:00
    Automático

    Cifra Club Pro

    Aproveite o Cifra Club com benefícios exclusivos e sem anúncios
    Cifra Club Pro
    Aproveite o Cifra Club com benefícios exclusivos e sem anúncios
    OK