Cifra Club

Agarrada Em Mim

Bruno e Marrone

Cifra: Principal
exibições 584.972
Tom: A# (com acordes na forma de A) Capotraste na 1ª casa
Intro:  A C#m D E A E

Solo:

E|---------0-2--0--------------0-2--0---------------0-|
B|-3/5--2b---------3-2-3/5--2b---------3-2-3--2-0-----|
G|------------------------------------------------2---|
D|----------------------------------------------------|
A|----------------------------------------------------|
E|----------------------------------------------------|

E|-2------------------------0-4-7---------------------|
B|---2-0--0-2-------------0---------------------------|
G|------------2--2-1----------------------------------|
D|-------------------2--------------------------------|
A|----------------------------------------------------|
E|----------------------------------------------------|

A                                     D
Enquanto a cidade dorme e eu aqui me lembro
        Bm           E  A E
Quanto tempo,quanto tempo
A                                         D
A gente já não fica junto em mais nenhum momento
        E            A  A7
Quanto tempo,quanto tempo

D                          E
Eu sei que foi só uma transa
             C#m               F#m
Mas sua lembrança me deixou assim
  D                     E            A        A7
Querendo ter você de novo , agarrada em mim
 D                         E
Desculpe se eu senti saudade,
              C#m                F#m
Se me deu vontade,eu não sei fingir
 D                E             A  E E4
Faz tempo,mas eu nunca te esqueci
 A                           C#m
Vem,quero amar seu corpo inteiro
                        D
Namorar,sentir seu cheiro
     Bm               E E4
Sem ter pressa de acabar,o,o,o
 A                       C#m
Vem,que eu estou aqui sozinho
                  D
Precisando de carinho
     E          A
Com vontade de te amar

Solo:

E|---------0-2--0--------------0-2--0---------------0-|
B|-3/5--2b---------3-2-3/5--2b---------3-2-3--2-0-----|
G|------------------------------------------------2---|
D|----------------------------------------------------|
A|----------------------------------------------------|
E|----------------------------------------------------|

E|-2------------------------0-4-7---------------------|
B|---2-0--0-2-------------0---------------------------|
G|------------2--2-1----------------------------------|
D|-------------------2--------------------------------|
A|----------------------------------------------------|
E|----------------------------------------------------|

D                          E
Eu sei que foi só uma transa
             C#m               F#m
Mas sua lembrança me deixou assim
  D                     E            A        A7
Querendo ter você de novo , agarrada em mim
 D                         E
Desculpe se eu senti saudade,
              C#m                F#m
Se me deu vontade,eu não sei fingir
 D                E             A  E E4
Faz tempo,mas eu nunca te esqueci
 A                           C#m
Vem,quero amar seu corpo inteiro
                        D
Namorar,sentir seu cheiro
     Bm               E E4
Sem ter pressa de acabar,o,o,o
 A                       C#m
Vem,que eu estou aqui sozinho
                  D
Precisando de carinho
     E          A
Com vontade de te amar
Acordes para:

    0 comentários

      mostrar mais comentários

      Conseguiu tocar?

      22tocaram0ainda não

      Grave um vídeo tocando Agarrada Em Mim e mande pra gente!

      00:00 / 00:00
      outros vídeos desta música
      repetirqualidadeautomática
      Outro vídeos desta música
        00:00 / 00:00
        automática
        OK