Cifra Club

Bijuteria

Bruno e Marrone

Cifra: Principal (violão e guitarra)
tom: A
[Primeira Parte - Primeira Estrofe]

          Am
Quando a noite cai
Am/G
     É que eu sinto a falta
       Dm
Que você me faz
Dm/C
     Saudade em quem não passa
          Bm7(5-)
E nem me deixa em paz
E7
   A sombra de um amor
            Am
Que já brilhou demais

Bm7(5-)  D/F#  E/G#

[Primeira Parte - Primeira Estrofe]

[Parte 01 De 04]

   Am              Am/G
E|------------------------------------------|
B|-1---1---1---1----1---1---1---1-----------|
G|-2---2---2---2----2---2---2---2-----------|
D|---2---2---2---2----2---2---2---2---------|
A|-0----------------------------------------|
E|------------------3-----------------------|

[Parte 02 De 04]

   Dm              Dm/C
E|-1---1---1---1----1---1---1---1-----------|
B|-3---3---3---3----3---3---3---3-----------|
G|---2---2---2---2----2---2---2---2---------|
D|-0----------------------------------------|
A|------------------3-----------------------|
E|------------------------------------------|

[Parte 03 De 04]

   Bm7(5-)          E7
E|------------------------------------------|
B|-3---3---3---3--------0---0---0-----------|
G|-2---2---2---2--------1---1---1-----------|
D|---3---3---3---3----0---0---0---0---------|
A|-2----------------------------------------|
E|------------------0-----------------------|

[Parte 04 De 04]

   Am              Bm7(5-)    D/F#  E/G#
E|------------------------------------------|
B|-----1---1---1----3---3-------------------|
G|-----2---2---2----2---2------2-----4------|
D|---2---2---2---2----3---------------------|
A|-0----------------2-----------------------|
E|-------------------------0---2-----4------|


Primeira Parte - Segunda Estrofe]

      Am
Você foi pra mim
Am/G
     A coisa mais bonita
         Dm
Que me aconteceu
Dm/C
     Não pode imaginar
           Bm7(5-)
Os sonhos que me deu
E
  E quanta insegurança
       Am         A7  G/B  A7/C#
Me deixou o adeus

[Pré-Refrão]

  Dm
Amei você
G
  Sem truque, sem maldade
       C7M
Fiz o meu papel
F7M
    Eu quis lhe oferecer
          Bm7(5-)
O que ninguém me deu
E
  Você não acredita
        Am      A7  G/B  A7/C#
Mas eu fui fiel


  Dm
Amei você
G
  Mas hoje posso ver
            C7M
Que foi melhor assim
F7M
    Preciso te esquecer
            Bm7(5-)
Pra me lembrar de mim
E              Am  A7  G/B  A7/C#
  A vida continua

[Refrão]

       Dm
E no brilho
              G
De uma pedra falsa
      C7M                F7M
Dei amor a quem não merecia
       Bm7(5-)              E
Eu pensei que era uma jóia rara
        Am    A7
Era bijuteria

        Dm
Das mentiras
              G
Das palavras doces
      C7M                   F7M
Vi calor no teu olhar tão frio
      Bm7(5-)             E
Da beleza do teu rosto esconde
           Am
Um coração    vazio


[Base Solo]

Dm  G  C7M  F7M

Bm7(5-)  E  Am  A7  G/B  A7/C#

[Solo]

[Parte 01 De 05]

E|----------------------------------------------------|
B|-8/10-8-6-8/10-10~--1-1--0-0---0--------------------|
G|--------------------2-2--0-0-2-0--------------------|
D|-----------------------------3----------------------|
A|----------------------------------------------------|
E|----------------------------------------------------|

[Parte 02 De 05]

E|-----------------------10-10------------------------|
B|-6/8-6-5-6/8-8~--10/12--------13-12-13-10~----------|
G|----------------------------------------------------|
D|----------------------------------------------------|
A|----------------------------------------------------|
E|----------------------------------------------------|

[Parte 03 De 05]

                      
E|--------------------7...-8...-10...-----------------|
B|-8/10-8-6-8/10-10~----------------------------------|
G|----------------------------------------------------|
D|----------------------------------------------------|
A|----------------------------------------------------|
E|----------------------------------------------------|

[Parte 04 De 05]

E|-------------------8---8-12--10-10-8-8--------------|
B|---------5---9---9---9------------------------------|
G|-----5-----5---9------------------------------------|
D|-6-----6--------------------------------------------|
A|---7------------------------------------------------|
E|----------------------------------------------------|

[Parte 05 De 05]

E|----------------------------------------------------|
B|-2-3-5--3-2-----------------------------------------|
G|-------------2-4-5-4-2------------------------------|
D|-----------------------5-3-2------------------------|
A|----------------------------------------------------|
E|----------------------------------------------------|


[Pré-Refrão]

  Dm
Amei você
G
  Sem truque, sem maldade
       C7M
Fiz o meu papel
F7M
    Eu quis lhe oferecer
          Bm7(5-)
O que ninguém me deu
E
  Você não acredita
        Am      A7  G/B  A7/C#
Mas eu fui fiel


  Dm
Amei você
G
  Mas hoje posso ver
            C7M
Que foi melhor assim
F7M
    Preciso te esquecer
            Bm7(5-)
Pra me lembrar de mim
E              Am  A7  G/B  A7/C#
  A vida continua

[Refrão]

       Dm
E no brilho
              G
De uma pedra falsa
      C7M                F7M
Dei amor a quem não merecia
       Bm7(5-)              E
Eu pensei que era uma jóia rara
        Am    A7
Era bijuteria

        Dm
Das mentiras
              G
Das palavras doces
      C7M                   F7M
Vi calor no teu olhar tão frio
      Bm7(5-)             E
Da beleza do teu rosto esconde
              Am  
Um coração vazio

Bm7(5-)  E7(9+)  E7  Am7(9)


[Final]

   Am           Bm7(5-)  E7(9+)  E7  Am7(9)
E|-------------------------------------7----|
B|-1-1-----1-----3-3-------8-----9-----8----|
G|-2---2-------2-2---2-----7-----7-----5----|
D|-2-----2---2---3---------6-----6-----5----|
A|-0-------------2-----2/7-------------0----|
E|-------------------------0-----0----------|
Composição de Carlos Colla / Chico Roque
Colaboração e revisão:
  • Leandro Sandim
111.339 exibições
  • Simplificar cifra
    • ½ Tom
    • A
    • Bb
    • B
    • C
    • Db
    • D
    • Eb
    • E
    • F
    • F#
    • G
    • Ab
  • Adicionar à lista

    0 comentários

    Ver todos os comentários
    00:00 / 00:00
    Outros vídeos desta música
    Repetir Qualidade Automático
    Outros vídeos desta música
    00:00 / 00:00
    Automático
    Capítulos
    • Tocando a Música
    • Apresentação/Equipamentos
    • Ensinando Acordes da Primeira Parte
    • Tocando Primeira Estrofe da Primeira Parte
    • Ensinando Primeira Estrofe - Parte 1 de 4
    • Ensinando Primeira Estrofe - Parte 2 de 4
    • Ensinando Primeira Estrofe - Parte 3 de 4
    • Ensinando Primeira Estrofe - Parte 4 de 4
    • Ensinando Acordes da Segunda Parte
    • Tocando Segunda Estrofe da Primeira Parte
    • Ensinando RItmo da da Música
    • Ensinando Acordes do Pré-Refrão
    • Tocando Pré-Refrão
    • Tocando Refrão
    • Tocando Solo
    • Ensinando Solo - Parte 1 de 5
    • Ensinando Solo - Parte 2 de 5
    • Ensinando Solo - Parte 3 de 5
    • Ensinando Solo - Parte 4 de 5
    • Ensinando Solo - Parte 5 de 5
    • Acordes do Refrão Final
    • Tocando Refrão Final
    • Ensinando Refrão Final
    • Encerramento

    Cifra Club Pro

    Aproveite o Cifra Club com benefícios exclusivos e sem anúncios
    Cifra Club Pro
    Aproveite o Cifra Club com benefícios exclusivos e sem anúncios
    OK