Cifra Club

Coração De Isca

Bruno e Marrone

Cifra: Principal (violão e guitarra)
tom: Fm (forma dos acordes no tom de Em) Capotraste na 1ª casa
[Intro] Em7  Bm  D9  A9

[Tab - Solo Intro]

Parte 1 De 2
E|----------------------------------------------------------------|
B|-8-8-7-5-7-7/8~-8-7-5-7-5h7~------------------------------------|
G|----------------------------------------------------------------|
D|----------------------------------------------------------------|
A|----------------------------------------------------------------|
E|----------------------------------------------------------------|

Parte 2 De 2
E|----------------------------------------------------------------|
B|-7-5---5-5h7~-7-5---7-5-----------------------------------------|
G|-----7------------7-----7-6h7p6--4-4p2-2/4~---------------------|
D|----------------------------------------------------------------|
A|----------------------------------------------------------------|
E|----------------------------------------------------------------|

[Primeira Parte]

Em7          Bm7(11)
Aquele eu te amo
                D9         A9
Parecia ser verdade, hein?
Em7                Bm7(11)    
Aquele abraço apertado, suspiro forçado
              D9            A9
Então era saudade de alguém

[Pré-Refrão]

                   Em7
Tinha que ser logo eu
                           Bm7(11)      
A pessoa que mais te entendeu
                          D9
Quando cê largou dele, sofreu
                               A9
Quem fez curativo em você fui eu
                    Em7
Tinha que ser logo eu
                          Bm7(11)
Escolheu pra cair na armadilha
     D9
Logo eu que te amava
             A9
E não via malícia

[Refrão]

                      Em7
Cê fez meu coração de isca
                  Bm
Tinha um plano em vista
                        D9
Fiz a ponte pra ele voltar
                            A9
Eu só fiz o amor dele aumentar
                      Em7
Cê fez meu coração de isca
                  Bm
Tinha um plano em vista
                    D9
E no filme dele e você
                        A9
Eu só fiz o papel de dublê
                        Em7
Vai o Oscar de melhor atriz pra você, iê

[Intro 2] Em7  Bm  D9  A9
          Em7  Bm  D9  A9

[Tab - Solo Intro]

Parte 1 De 4
E|----------------------------------------------------------------|
B|-5-5-5-7-8-7-5-7-7/8~-8-7-5-7-5h7~------------------------------|
G|----------------------------------------------------------------|
D|----------------------------------------------------------------|
A|----------------------------------------------------------------|
E|----------------------------------------------------------------|

Parte 2 De 4
E|----------------------------------------------------------------|
B|-7-5---5-5h7~-7-7-7-5---7-5-------------------------------------|
G|-----7----------------7-----------------------------------------|
D|----------------------------------------------------------------|
A|----------------------------------------------------------------|
E|----------------------------------------------------------------|

Parte 3 De 4
E|----------------------------------------------------------------|
B|-5-5-5-7-8-7-5-7-7/8~-8-8-8-7-5-7-5h7~--------------------------|
G|----------------------------------------------------------------|
D|----------------------------------------------------------------|
A|----------------------------------------------------------------|
E|----------------------------------------------------------------|

Parte 4 De 4
E|----------------------------------------------------------------|
B|-7-5---5-5h7~-7-7-7-5---7-5------------5/8~---------------------|
G|-----7----------------7------7-6h7p6-4--------------------------|
D|----------------------------------------------------------------|
A|----------------------------------------------------------------|
E|----------------------------------------------------------------|

[Pré-Refrão]

                   Em7
Tinha que ser logo eu
                           Bm7(11)      
A pessoa que mais te entendeu
                          D9
Quando cê largou dele, sofreu
                               A9
Quem fez curativo em você fui eu
                    Em7
Tinha que ser logo eu
                          Bm7(11)
Escolheu pra cair na armadilha
     D9
Logo eu que te amava
             A9
E não via malícia

[Refrão]

                      Em7
Cê fez meu coração de isca
                  Bm
Tinha um plano em vista
                        D9
Fiz a ponte pra ele voltar
                            A9
Eu só fiz o amor dele aumentar
                      Em7
Cê fez meu coração de isca
                  Bm
Tinha um plano em vista
                    D9
E no filme dele e você
                        A9
Eu só fiz o papel de dublê

                      Em7
Cê fez meu coração de isca
                  Bm
Tinha um plano em vista
                        D9
Fiz a ponte pra ele voltar
                            A9
Eu só fiz o amor dele aumentar
                      Em7
Cê fez meu coração de isca
                  Bm
Tinha um plano em vista
                    D9
E no filme dele e você
                        A9
Eu só fiz o papel de dublê
                       Em7
Vai o Oscar de melhor atriz pra você, iê

[Final] Em7  Bm  D9  A9
        Em7  Bm  D9  A9

[Tab - Solo Final]

Parte 1 De 5
E|----------------------------------------------------------------|
B|-5-5-5-7-8-7-5-7-7/8~-8-7-5-7-5h7~------------------------------|
G|----------------------------------------------------------------|
D|----------------------------------------------------------------|
A|----------------------------------------------------------------|
E|----------------------------------------------------------------|

Parte 2 De 5
E|----------------------------------------------------------------|
B|-7-5---5-5h7~-7-7-7-5---7-5-------------------------------------|
G|-----7----------------7-----------------------------------------|
D|----------------------------------------------------------------|
A|----------------------------------------------------------------|
E|----------------------------------------------------------------|

Parte 3 De 5
E|----------------------------------------------------------------|
B|-5-5-5-7-8-7-5-7-7/8~-8-8-8-7-5-7-5h7~--------------------------|
G|----------------------------------------------------------------|
D|----------------------------------------------------------------|
A|----------------------------------------------------------------|
E|----------------------------------------------------------------|

Parte 4 De 5
E|----------------------------------------------------------------|
B|-7-5---5-5h7~-7-7-7-5---7-5-------------------------------------|
G|-----7----------------7-----------------------------------------|
D|----------------------------------------------------------------|
A|----------------------------------------------------------------|
E|----------------------------------------------------------------|

Parte 5 De 5
E|----------------------------------------------------------------|
B|-5-5-5-7-8-7-5-7-7/8~-------------------------------------------|
G|----------------------------------------------------------------|
D|----------------------------------------------------------------|
A|----------------------------------------------------------------|
E|----------------------------------------------------------------|

                      Em7
Cê fez meu coração de isca
00:00 / 00:00
Outros vídeos desta música
Repetir
Outros vídeos desta música
Composição de Diego Maradona / Everton Matos / GUILHERME FERRAZ / Paulo Henrique Pires / Ray Antonio / Sandro Neto
Colaboração e revisão:
  • LC Passos
9.361 exibições
    • ½ Tom
    • Am
    • Bbm
    • Bm
    • Cm
    • C#m
    • Dm
    • Ebm
    • Em
    • Fm
    • F#m
    • Gm
    • G#m
  • Adicionar à lista

    0 comentários

    Ver todos os comentários

    Entre para oCifra Club PRO

    Tenha acesso a benefícios exclusivos no App e no Site

    • Chega de anúncios

    • Prioridade de compra em lançamentos

    • Mais recursos no app do Afinador

    • Atendimento Prioritário

    • Descontos nos produtos Cifra Club

    • Ajude a produzir mais conteúdo

    00:00 / 00:00

    Cifra Club Pro

    Aproveite o Cifra Club com benefícios exclusivos e sem anúncios
    Cifra Club Pro
    Aproveite o Cifra Club com benefícios exclusivos e sem anúncios
    OK