Enviar cifraEntrar

Deixa

Bruno e Marrone

Cifra: Principal
exibições 760.856
Tom: C

Intro: G D/F# C9
E|-------------3---2--------------0--|
B|---------3-----------3---0------3--|
G|-----4-----------------------0--0--|
D|--------------------------------3--|
A|--------------------------------2--|
E|-3---------------------------------|


(Intro solo)

E|--7--7/8\7--------7/8\7-----------------------|
B|------------10----------8---10-8--10/12~\10~--|
G|----------------------------------------------|
D|----------------------------------------------|
A|----------------------------------------------|
E|----------------------------------------------|


  G               D/F#
Deixa, eu pelo menos falar de nós
         C9
por um minuto ouvir tua voz
            G          F   C
nem precisa me perdoar
  G             D/F#
Sabe, ja não consigo entender
         C9
se quem amou pra valer
                G
diz que agora tanto faz
          D/F#
que ja não me quer mais
            C (C9)
e diz que nunca ,nunca....
 G
Vai me ligar,
                           D/F#
na hora que a saudade a vontade apertar
                             C (C9)
na busca incessante de outro amor encontrar
 C/E              Cm
tentando achar a saída
  G
Quero esquecer,
                     D/F#
como se fosse fácil apagar tudo assim
                          C (C9)       Cm
matando nossa história a metade de mim Oh,oh! Deixa

(Solo)

E|--7--7/8\7--------7/8\7-----------------------|
B|------------10----------8---10-8--10/12~\10~--|
G|----------------------------------------------|
D|----------------------------------------------|
A|----------------------------------------------|
E|----------------------------------------------|


(repete tudo)

(aumenta 2 tons)

(solo) (A E D Dm F# B)


E|--9br--9/10-9------------------12-14-12h14-14br--17-17-15-13-14br--|
B|---------------12br-12-14-14/15------------------------------------|
G|-------------------------------------------------------------------|
D|-------------------------------------------------------------------|
A|-------------------------------------------------------------------|
E|-------------------------------------------------------------------|


 B
Vai me ligar,
                           F#/A#
na hora que a saudade a vontade apertar
                             E (E9)
na busca incessante de outro amor encontrar
 E/G#              Em
tentando achar a saída
  B
Quero esquecer,
                     F#/A#
como se fosse fácil apagar tudo assim
                          E (E9)       Em
matando nossa história a metade de mim
    B
Ooh! Deixa
      F#/A#
Oh,oh! Deixa
       E   B
Hum,um,um! Deixa

E|----------2----------------2--|
B|----------4-----------2h4-----|
G|----------4--------4----------|
D|----------4-----4-------------|
A|----------2--2----------------|
E|------------------------------|
  • 1
  • 2
  • 3
  • 4
  • 5
  • 6
  • 7
  • 8
  • 9
  • 10
  • 11
  • 12
    Acordes para:
      Composição: Bruno e ViníciusColaboração e revisão:

      0 comentários

        mostrar mais comentários

        Conseguiu tocar?

        14tocaram2ainda não

        Grave um vídeo tocando Deixa e mande pra gente!

        00:00 / 00:00
        outros vídeos desta música
        repetirqualidadeautomática
        • automática
        Outro vídeos desta música
          00:00 / 00:00
          automática
          • automática
          Acordes para:violão e guitarra
          dificuldadeexibiçõescontribuições
          fecharplay/pause subir/descer velocidade
            acordes
            fechar
            OK
            Feedback