Cifra Club

Deixa

Bruno e Marrone

Cifra: Principal
exibições 840.856
Tom: C
Intro: G D/F# C9

E|-------------3---2--------------0-----------|
B|---------3-----------3---0------3-----------|
G|-----4-----------------------0--0-----------|
D|--------------------------------3-----------|
A|--------------------------------2-----------|
E|-3------------------------------------------|

Intro solo:

E|--7--7/8\7--------7/8\7---------------------|
B|------------10----------8---10-8--10/12~\10~|
G|--------------------------------------------|
D|--------------------------------------------|
A|--------------------------------------------|
E|--------------------------------------------|

G                 D/F#
  Deixa, eu pelo menos falar de nós
          C9
Por um minuto ouvir tua voz
             G          F   C
Nem precisa me perdoar
 G               D/F#
Sabe, ja não consigo entender
          C9
Se quem amou pra valer
               G
Diz que agora tanto faz
            D/F#
Que ja não me quer mais
           C (C9)
E diz que nunca ,nunca....

Refrão:
 G
Vai me ligar,
                            D/F#
Na hora que a saudade a vontade apertar
                             C (C9)
Na busca incessante de outro amor encontrar
 C/E              Cm
Tentando achar a saída
  G
Quero esquecer,
                    D/F#
Como se fosse fácil apagar tudo assim
                          C (C9)       Cm
Matando nossa história a metade de mim Oh,oh! Deixa

Solo:

E|--7--7/8\7--------7/8\7-----------------------|
B|------------10----------8---10-8--10/12~\10~--|
G|----------------------------------------------|
D|----------------------------------------------|
A|----------------------------------------------|
E|----------------------------------------------|


G                 D/F#
  Deixa, eu pelo menos falar de nós
          C9
Por um minuto ouvir tua voz
             G          F   C
Nem precisa me perdoar
 G               D/F#
Sabe, ja não consigo entender
          C9
Se quem amou pra valer
               G
Diz que agora tanto faz
            D/F#
Que ja não me quer mais
           C (C9)
E diz que nunca ,nunca....

Refrão:
 G
Vai me ligar,
                            D/F#
Na hora que a saudade a vontade apertar
                             C (C9)
Na busca incessante de outro amor encontrar
 C/E              Cm
Tentando achar a saída
  G
Quero esquecer,
                      D/F#
Como se fosse fácil apagar tudo assim
                          C (C9)       Cm
Matando nossa história a metade de mim Oh,oh! Deixa


Solo: A E D Dm F# B


E|--9br--9/10-9------------------12-14-12h14-14br--17-17-15-13-14br--|
B|---------------12br-12-14-14/15------------------------------------|
G|-------------------------------------------------------------------|
D|-------------------------------------------------------------------|
A|-------------------------------------------------------------------|
E|-------------------------------------------------------------------|

Refrão:
 G
Vai me ligar,
                            D/F#
Na hora que a saudade a vontade apertar
                             C (C9)
Na busca incessante de outro amor encontrar
 C/E              Cm
Tentando achar a saída
  G
Quero esquecer,
                      D/F#
Como se fosse fácil apagar tudo assim
                          C (C9)       Cm
Matando nossa história a metade de mim 
      B
Ooh! Deixa
        F#/A#
Oh,oh! Deixa
       E    B
Hum,um,um! Deixa
Acordes para:
    Colaboração e revisão:

    0 comentários

      mostrar mais comentários

      Conseguiu tocar?

      14tocaram2ainda não

      Grave um vídeo tocando Deixa e mande pra gente!

      00:00 / 00:00
      outros vídeos desta música
      repetirqualidadeautomática
      Outro vídeos desta música
        00:00 / 00:00
        automática
        OK