Notificações Amigos pendentes

      Bruno e Marrone

      Flores

      25.074 exibições
      Tom: A#
      Intro:
      
      
             A#     F    Gm                  Eb
      E|--------------|--------------------------------|
      B|--------------|--------------------------------|
      G|--5h7-10\5-5--|-3-2h3p2---3-2h3p2---3-2h3p2----|
      D|--------------|---------3---------3---------3--|
      A|--------------|--------------------------------|
      E|--------------|--------------------------------|
      
      
                A#     F    Gm                  Eb
      E|-----------------|--------------------------------|
      B|-----------------|--------------------------------|
      G|---5-5h7-10\5-5--|-3-2h3p2---3-2h3p2---3-2h3p2----|
      D|-----------------|---------3---------3---------3--|
      A|-----------------|--------------------------------|
      E|-----------------|--------------------------------|
      
      
      A#         F/A Gm         Eb
      Se você chorar, te faço sorrir
      A#       F/A   Gm        Eb
      Se você fugir, te faço voltar pra mim
      A#            F/A  Gm        Eb
      Se finge não ver, te faço enxergar
      A#         F/A  Gm            Eb
      E se for dormir, eu vou te acordar
      
      A#               F/A          Gm            Eb
      Com flores e as cores que combinam com a paixão
      A#              F/A        Gm            Eb
      E um verso rabiscado, eu te amo num cartão (2x)
      
      (Repete Intro)
      
      A#         F/A Gm         Eb
      Se você chorar, te faço sorrir
      A#       F/A   Gm        Eb
      Se você fugir, te faço voltar pra mim
      A#            F/A  Gm        Eb
      Se finge não ver, te faço enxergar
      A#         F/A  Gm            Eb
      E se for dormir, eu vou te acordar
      
      A#               F/A          Gm            Eb
      Com flores e as cores que combinam com a paixão
      A#              F/A        Gm            Eb
      E um verso rabiscado, eu te amo num cartão (2x)
      
      Cm7               F/A   A#                Eb
      Não precisa ter medo, eu vou te fazer acreditar
      Cm
      No meu amor (no meu amor)
      Eb
      No nosso amor (no nosso amor)
      F/A
      Você sempre vai lembrar
      
      A#               F/A          Gm            Eb
      Das flores e as cores que combinam com a paixão
      A#               F/A          Gm            Eb
      E um verso rabiscado, eu te amo num cartão (2x)
      
      Solo final (desacelerando):
      
      
          Eb                         A#
      E|--------------------------|-1-|
      B|--------------------------|-3-|
      G|-3-2---3-2---3-2---3-2----|-3-|
      D|-----3-----3-----3-----3--|-3-|
      A|--------------------------|-1-|
      E|--------------------------|-x-|
      

      Comentários 1

      140 .
      140 cancelar

      conseguiu tocar?

      covers

      Grave um vídeo tocando Flores e mande pra gente!

      Ex.: http://www.youtube.com/watch?v=0IvSvIwGdwk
      ver covers de outras músicas »
      0:00 / 0:00

      Capítulos

        1 versão de violão dificuldade exibições contribuição e correção
        1 versão de guitarra dificuldade exibições contribuição e correção
        1 versão de cavaco dificuldade exibições contribuição e correção
        1 versão de teclado dificuldade exibições contribuição e correção
        play/pausefechar subir/descer velocidade
        6ª corda E5ª corda A4ª corda D3ª corda G2ª corda B1ª corda E
          acordes
          publicidade
          fechar
          ok