Cifra Club

Aprenda

Sou Eu

Bruno e Marrone

Cifra: Principal (violão e guitarra)
tom: E
[Intro] E  G#m  A  B  A  B  A

E|-----7---5-4----------7----5-4-5---4----------------------|
B|-4/5----------7-5-4------------------5----7-9-7-2-4-5-7---|
G|----------------------------------------------------------|
D|----------------------------------------------------------|
A|----------------------------------------------------------|
E|----------------------------------------------------------|

[Primeira Parte]

E
Ele te provoca
E
Pra mostrar
                 G#m
Que é melhor que eu
A                        Am
Joga todo o charme que puder
                E     B
Pra ver se me venceu

[Segunda Parte]

E
Olha pra você
E
Com aquele jeito
                 G#m
De quem vai te amar
           A   F#7          B
Mais do que eu, mais do que eu
E
Ele sempre chega
                       G#m
Nos lugares que você está
A                         Am
Quer aparecer de qualquer jeito
           E   B
Pra você notar
E
Pra quem sabe ler
E
Um pingo é letra
           G#m                    A   B
Eu posso decifrar se é jogo de amor
             E
Também sei jogar

[Pré-Refrão]

C#m
Quando o telefone toca
                    G#m
Você já não quer atender
G#m
Pode ser ele do outro lado
                A
Pra falar com você
B      E
Não sou eu
C#m
Acho que é melhor
                           G#m
Você contar pra ele de uma vez
                                             F#7
Que esse amor é todo meu e eu não divido por três
     B      B7
Sou eu, sou eu

[Refrão]

  E          C#m
Sou eu quem faz
 A          B
Amor com você à noite
  E         C#m     A            B
Sou eu quem dá, a vida se preciso for
 G#7                 C#m          Am
Faz ele ver, que o seu grande amor
   E               B                E
Sou eu, sou eu, sou eu, sou eu, sou eu

[Solo]

E|-----7---5-4----------7----5-4-5---4----------------------|
B|-4/5----------7-5-4------------------5----7-9-7-2-4-5-7---|
G|----------------------------------------------------------|
D|----------------------------------------------------------|
A|----------------------------------------------------------|
E|----------------------------------------------------------|

[Pré-Refrão]

C#m
Quando o telefone toca
                     G#m
Você já não quer atender
G#m
Pode ser ele do outro lado
                A
Pra falar com você
B      E
Não sou eu
C#m
Acho que é melhor
                            G#m
Você contar pra ele de uma vez
                                                     F#7
Que esse amor é todo meu e eu não divido por três
     B      B7
Sou eu, sou eu

[Refrão]

  E          C#m
Sou eu quem faz
 A           B
Amor com você à noite
  E         C#m     A             B
Sou eu quem dá, a vida se preciso for
 G#7                 C#m          Am
Faz ele ver, que o seu grande amor
   E               B               E
Sou eu, sou eu, sou eu, sou eu, sou eu

[Final]

E|-----7--7-5-4--------7----5-4-5-4------4------------5-4-2----|
B|-4/5----------7-4-----------------5---7--7----4-5-7-------5--|
G|-------------------------------------------6-----------------|
D|-------------------------------------------------------------|
A|-------------------------------------------------------------|
E|-------------------------------------------------------------|
Composição de Carlos Pedro
180.210 exibições
    • ½ Tom
    • A
    • Bb
    • B
    • C
    • Db
    • D
    • Eb
    • E
    • F
    • F#
    • G
    • Ab
  • Adicionar à lista

    0 comentários

    Ver todos os comentários
    00:00 / 00:00
    Outros vídeos desta música
    Repetir Qualidade Automático
    Outros vídeos desta música
    00:00 / 00:00
    Automático

    Cifra Club Pro

    Aproveite o Cifra Club com benefícios exclusivos e sem anúncios
    Cifra Club Pro
    Aproveite o Cifra Club com benefícios exclusivos e sem anúncios
    OK