Cifra Club

777

Bruno Mars

Cifra: Principal (violão e guitarra)
Selo Cifra Club: esta cifra foi revisada para atender aos critérios oficiais da nossa Equipe de Qualidade.
tom: F
E|-----------------------------------------------------------------------------------------|
B|-----------------------------------------------------------------------------------------|
G|-----x-x-9-10-x-x-9-10-x-x----x-x-9-10-x-x-9-10-12----x-x-9-10-x-x-9-10-x-x----x-x-9-10--|
D|-----------------------------------------------------------------------------------------|
A|--10-----------------------10----------------------10-----------------------10-----------|
E|-----------------------------------------------------------------------------------------|


[Verse 1]

E|-----------------------------------------------------------------------------------------------------|
B|-----------------------------------------------------------------------------------------------------|
G|-----x-x-9-10-x-x-9-10-x-x----x-x-9-10-x-x-9-10-12----x-x-9-10-x-x-9-10-x-x----x-x-9-10-x-x-9-10-12--|
D|-----------------------------------------------------------------------------------------------------|
A|--10-----------------------10----------------------10-----------------------10-----------------------|
E|-----------------------------------------------------------------------------------------------------|

E|-----------------------------------------------------------------------------------------|
B|-----------------------------------------------------------------------------------------|
G|-----x-x-9-10-x-x-9-10-x-x----x-x-9-10-x-x-9-10-12----x-x-9-10-x-x-9-10-x-x----x-x-9-10--|
D|-----------------------------------------------------------------------------------------|
A|--10-----------------------10----------------------10-----------------------10-----------|
E|-----------------------------------------------------------------------------------------|


[Verse 2]

E|-----------------------------------------------------------------------------------------------------|
B|-----------------------------------------------------------------------------------------------------|
G|-----x-x-9-10-x-x-9-10-x-x----x-x-9-10-x-x-9-10-12----x-x-9-10-x-x-9-10-x-x----x-x-9-10-x-x-9-10-12--|
D|-----------------------------------------------------------------------------------------------------|
A|--10-----------------------10----------------------10-----------------------10-----------------------|
E|-----------------------------------------------------------------------------------------------------|


[Prechorus]

E|---------------------------------------------------------------------------|
B|---------------------------------------------------------------------------|
G|--12---12---12---14-15-16--------------------------------------------------|
D|---------------------------------------------------------------------------|
A|--10---10---10---12-13-14--------------------------------------------------|
E|---------------------------------------------------------------------------|


[Chorus] Strum 16th notes on this chord, then hits right before the interlude.

E|--6---|----------------------------------------------------------------------|
B|--5---|----------------------------------------------------------------------|
G|--5---|--7-7-----------------------------------------------------------------|
D|------|----------------------------------------------------------------------|
A|------|--5-5-----------------------------------------------------------------|
E|------|----------------------------------------------------------------------|


[Interlude]

E|-----------------------------------------------------------------------------------------|
B|-----------------------------------------------------------------------------------------|
G|-----x-x-9-10-x-x-9-10-x-x----x-x-9-10-x-x-9-10-12----x-x-9-10-x-x-9-10-x-x----x-x-9-10--|
D|-----------------------------------------------------------------------------------------|
A|--10-----------------------10----------------------10-----------------------10-----------|
E|-----------------------------------------------------------------------------------------|


[Verse 3] Guitar stops playing when Bruno sings "Woooo"

E|-----------------------------------------------------------------------------------------|
B|-----------------------------------------------------------------------------------------|
G|-----x-x-9-10-x-x-9-10-x-x----x-x-9-10-x-x-9-10-12----x-x-9-10-x-x-9-10-x-x--------------|
D|-----------------------------------------------------------------------------------------|
A|--10-----------------------10----------------------10------------------------------------|
E|-----------------------------------------------------------------------------------------|

E|-----------------------------------------------------------------------------------------|
B|-----------------------------------------------------------------------------------------|
G|-----x-x-9-10-x-x-9-10-x-x----x-x-9-10-x-x-9-10-12----x-x-9-10-x-x-9-10-x-x----x-x-9-10--|
D|-----------------------------------------------------------------------------------------|
A|--10-----------------------10----------------------10-----------------------10-----------|
E|-----------------------------------------------------------------------------------------|


[Verse 4]

E|-----------------------------------------------------------------------------------------------------|
B|-----------------------------------------------------------------------------------------------------|
G|-----x-x-9-10-x-x-9-10-x-x----x-x-9-10-x-x-9-10-12----x-x-9-10-x-x-9-10-x-x----x-x-9-10-x-x-9-10-12--|
D|-----------------------------------------------------------------------------------------------------|
A|--10-----------------------10----------------------10-----------------------10-----------------------|
E|-----------------------------------------------------------------------------------------------------|


[Prechorus]

E|---------------------------------------------------------------------------|
B|---------------------------------------------------------------------------|
G|--12---12---12---14-15-16--------------------------------------------------|
D|---------------------------------------------------------------------------|
A|--10---10---10---12-13-14--------------------------------------------------|
E|---------------------------------------------------------------------------|


[Chorus] Strum 16th notes on this chord, then hits right before the interlude.

E|--6---|----------------------------------------------------------------------|
B|--5---|----------------------------------------------------------------------|
G|--5---|--7-7-----------------------------------------------------------------|
D|------|----------------------------------------------------------------------|
A|------|--5-5-----------------------------------------------------------------|
E|------|----------------------------------------------------------------------|


[Bridge]

E|--6--8--6--6--7--|--8--10--8--8--9--10--------------------------------------|
B|--6--8--6--6--7--|--8--10--8--8--9--10--------------------------------------|
G|--6--8--6--6--7--|--8--10--8--8--9--10--------------------------------------|
D|-----------------|----------------------------------------------------------|
A|-----------------|----------------------------------------------------------|
E|-----------------|----------------------------------------------------------|


[Breakdown] Drum breakdown with hits before the outro chorus

E|---------------------------------------------------------------|
B|---------------------------------------------------------------|
G|-----14-15-16--------------------------------------------------|
D|---------------------------------------------------------------|
A|-----12-13-14--------------------------------------------------|
E|---------------------------------------------------------------|


[Outro] James Brown / gospel-shout feel - 16th note strumming with hits to end the song.

E|--6---|--------|--6---|---------------------------------------------------------|
B|--5---|--------|--5---|---------------------------------------------------------|
G|--5---|--7-7---|--5---|--7-7----------------------------------------------------|
D|------|--------|------|---------------------------------------------------------|
A|------|--5-5---|------|--5-5----------------------------------------------------|
E|------|--------|------|---------------------------------------------------------|
Outros vídeos desta música
418 exibições
    • ½ Tom
    • A
    • Bb
    • B
    • C
    • Db
    • D
    • Eb
    • E
    • F
    • F#
    • G
    • Ab
  • Adicionar à lista

Afinação da cifra

Afinador online

    0 comentários

    Ver todos os comentários

    Entre para o Cifra Club PRO

    Tenha acesso a benefícios exclusivos no App e no Site

    • Chega de anúncios

    • Mais recursos no app do Afinador

    • Atendimento Prioritário

    • Aumente seu limite de lista

    • Ajude a produzir mais conteúdo

    Cifra Club Pro

    Aproveite o Cifra Club com benefícios exclusivos e sem anúncios
    Cifra Club Pro
    Aproveite o Cifra Club com benefícios exclusivos e sem anúncios
    OK