Cifra Club

After Last Night

Bruno Mars

Cifra: Principal (violão e guitarra)
Selo Cifra Club: esta cifra foi revisada para atender aos critérios oficiais da nossa Equipe de Qualidade.
tom: Cm
Fm7 Gm7 G#m7 D#m11
Fm7 Gm7 G#m7 G7#9

E|---------------------------------------------------------------------------|
B|---------------------------------------------------------------------------|
G|-----8-10/12---------------------------------------------------------------|
D|--10-----------------------------------------------------------------------|
A|---------------------------------------------------------------------------|
E|---------------------------------------------------------------------------|


[Verse 1: Bruno Mars & Anderson .Paak, Bootsy Collins]

Fm9 G7#9 Cm11 Cm11
Fm9 G7#9 Cm11

E|---------------------------------------------------------------------------|
B|---------------------------------------------------------------------------|
G|-----8-10/12---------------------------------------------------------------|
D|--10-----------------------------------------------------------------------|
A|---------------------------------------------------------------------------|
E|---------------------------------------------------------------------------|


[Pre-Chorus: Anderson .Paak & Bootsy Collins]

G#maj7 Cm11 Fm9 G7#9

E|---------------------------------------------------------------------------|
B|---------------------------------------------------------------------------|
G|-----8-10/12---------------------------------------------------------------|
D|--10-----------------------------------------------------------------------|
A|---------------------------------------------------------------------------|
E|---------------------------------------------------------------------------|


[Chorus: Anderson .Paak, Bootsy Collins & Bruno Mars]

Fm9 G7#9 Cm11 Cm11
Fm9 G7#9 Cm11

E|---------------------------------------------------------------------------|
B|---------------------------------------------------------------------------|
G|-----8-10/12---------------------------------------------------------------|
D|--10-----------------------------------------------------------------------|
A|---------------------------------------------------------------------------|
E|---------------------------------------------------------------------------|

Fm9 G7#9 Cm11 Cm11
Fm9

E|---------------------------------------------------------------------------|
B|---------------------------------------------------------------------------|
G|-----------------------------------8---------------------------------------|
D|--10-10-8----10-10-8----10-10-8------10-8----------------------------------|
A|----------10---------10---------10--------10-8-----------------------------|
E|-----------------------------------------------11-8------------------------|


[Verse 2: Bruno Mars, Anderson .Paak & Bootsy Collins]

Fm9 G7#9 Cm11 Cm11
Fm9 G7#9 Cm11

E|---------------------------------------------------------------------------|
B|---------------------------------------------------------------------------|
G|-----8-10/12---------------------------------------------------------------|
D|--10-----------------------------------------------------------------------|
A|---------------------------------------------------------------------------|
E|---------------------------------------------------------------------------|


[Pre-Chorus: Bruno Mars]

G#maj7 Cm11 Fm9 G7#9

E|---------------------------------------------------------------------------|
B|---------------------------------------------------------------------------|
G|-----8-10/12---------------------------------------------------------------|
D|--10-----------------------------------------------------------------------|
A|---------------------------------------------------------------------------|
E|---------------------------------------------------------------------------|


[Chorus: Anderson .Paak, Bootsy Collins & Bruno Mars]

Fm9 G7#9 Cm11 Cm11
Fm9 G7#9 Cm11

E|---------------------------------------------------------------------------|
B|---------------------------------------------------------------------------|
G|-----8-10/12---------------------------------------------------------------|
D|--10-----------------------------------------------------------------------|
A|---------------------------------------------------------------------------|
E|---------------------------------------------------------------------------|

Fm9 G7#9 Cm11 Cm11
Fm9

E|---------------------------------------------------------------------------|
B|---------------------------------------------------------------------------|
G|-----------------------------------8---------------------------------------|
D|--10-10-8----10-10-8----10-10-8------10-8----------------------------------|
A|----------10---------10---------10--------10-8-----------------------------|
E|-----------------------------------------------11-10-----------------------|


[Modulated Chorus: Bruno Mars & Anderson .Paak, Bootsy Collins]

Gm9 A7#9 Dm11 Dm11
Gm9 A7#9 Dm11

E|---------------------------------------------------------------------------|
B|---------------------------------------------------------------------------|
G|-----10-12/14--------------------------------------------------------------|
D|--12-----------------------------------------------------------------------|
A|---------------------------------------------------------------------------|
E|---------------------------------------------------------------------------|


[Bridge: Bruno Mars & Anderson .Paak, Bootsy Collins]

Gm9 A7#9 Dm11 Dm11
Gm9 A7#9 Dm11

E|---------------------------------------------------------------------------|
B|---------------------------------------------------------------------------|
G|-----10-12/14--------------------------------------------------------------|
D|--12-----------------------------------------------------------------------|
A|---------------------------------------------------------------------------|
E|---------------------------------------------------------------------------|


[Outro: Anderson .Paak, Bruno Mars & Bootsy Collins]

Gm9 A7#9 Dm11 Dm11
Gm9

E|---------------------------------------------------------------------------|
B|---------------------------------------------------------------------------|
G|-------------------------------------10------------------------------------|
D|--12-12-10----12-12-10----12-12-10------12-10------------------------------|
A|-----------12---------12----------12---------12-10-------------------------|
E|---------------------------------------------------13----------------------|
00:00 / 00:00
Outros vídeos desta música
Repetir
Outros vídeos desta música
2.750 exibições
    • ½ Tom
    • Am
    • Bbm
    • Bm
    • Cm
    • C#m
    • Dm
    • Ebm
    • Em
    • Fm
    • F#m
    • Gm
    • G#m
  • Adicionar à lista

Afinação da cifra

Afinador online

    0 comentários

    Ver todos os comentários

    Entre para o Cifra Club PRO

    Tenha acesso a benefícios exclusivos no App e no Site

    • Chega de anúncios

    • Mais recursos no app do Afinador

    • Atendimento Prioritário

    • Aumente seu limite de lista

    • Ajude a produzir mais conteúdo

    00:00 / 00:00

    Cifra Club Pro

    Aproveite o Cifra Club com benefícios exclusivos e sem anúncios
    Cifra Club Pro
    Aproveite o Cifra Club com benefícios exclusivos e sem anúncios
    OK