Cifra Club

Grenade

Bruno Mars

Cifra: Principal (violão e guitarra)
exibições 632.524
Tom: Dm
 [Primeira parte]

Dm
Easy come, easy go

That's just how you live, oh
 Am
Take, take, take it all

But you never give

  Dm
Should've known you was trouble

From the first kiss
         Am
Had your eyes wide open
A
  Why were they open?

[Dedilhado primeira parte]

Parte 1 de 4
         Dm
E|------------------------------------------|
B|-6-----6-----6----6-----6-----6-----------|
G|---7-----7-----7----7-----7-----7---------|
D|-----7-----7----------7-----7-------------|
A|-5----------------5-----------------------|
E|------------------------------------------|

Parte 2 de 4
         Am
E|------------------------------------------|
B|-5-----5-----5----5-----5-----5-----------|
G|---5-----5-----5----5-----5-----5---------|
D|-----7-----7----------7-----7-------------|
A|------------------------------------------|
E|-5----------------5-----------------------|

Parte 3 de 4
         Dm
E|------------------------------------------|
B|-6-----6-----6----6-----6-----6-----------|
G|---7-----7-----7----7-----7-----7---------|
D|-----7-----7----------7-----7-------------|
A|-5----------------5-----------------------|
E|------------------------------------------|

Parte 4 de 4
         Am               A
E|------------------5-----------------------|
B|-5-----5-----5----5-----------------------|
G|---5-----5-----5--6-----------------------|
D|-----7-----7------7-----------------------|
A|------------------7-----------------------|
E|-5----------------5-----------------------|
                    ↓

[Pré-refrão]

 Dm
Gave you all I had

And you tossed it in the trash
     Am
You tossed it in the trash, you did!
    Dm
To give me all your love is all
                     Bb
I ever asked, 'cause
                      A
What you don't understand is

[Dedilhado Pré-refrão]

Parte 1 de 4
         Dm
E|------------------------------------------|
B|-6-----6-----6----6-----6-----6-----------|
G|---7-----7-----7----7-----7-----7---------|
D|-----7-----7----------7-----7-------------|
A|-5----------------5-----------------------|
E|------------------------------------------|

Parte 2 de 4
         Am
E|------------------------------------------|
B|-5-----5-----5----5-----5-----5-----------|
G|---5-----5-----5----5-----5-----5---------|
D|-----7-----7----------7-----7-------------|
A|------------------------------------------|
E|-5----------------5-----------------------|

Parte 3 de 4
         Dm
E|------------------------------------------|
B|-6-----6-----6----6-----6-----6-----------|
G|---7-----7-----7----7-----7-----7---------|
D|-----7-----7----------7-----7-------------|
A|-5----------------5-----------------------|
E|------------------------------------------|

Parte 4 de 4
         Bb               A
E|-6-6-6-6-6-6-6-6--5\----------------------|
B|-6-6-6-6-6-6-6-6--5\----------------------|
G|-7-7-7-7-7-7-7-7--6\----------------------|
D|-8-8-8-8-8-8-8-8--7\----------------------|
A|-8-8-8-8-8-8-8-8--7\----------------------|
E|-6-6-6-6-6-6-6-6--5\----------------------|
   ↓ ↓ ↓ ↓ ↓ ↓ ↓ ↓  ↓

[Refrão]

                Dm       Bb9  F
I'd catch a grenade for ya
       C             Dm       Bb9  F
Throw my hand on a blade for ya
         C               Dm       Bb9  F
I'd jump in front of a train for ya
         C           Dm       Bb9  F  C
You know I'd do anything for ya

             Bb9                    C
Oh, I would go through all of this pain
        F                 A7        Dm
Take a bullet straight through my brain
 Dm/C         Bb9              A7
Yes, I would die for you, baby
                          Dm
But you won't do the same
 Am
No, no, no

[Dedilhado final do refrão]

Parte 1
         Dm
E|------------------------------------------|
B|-6-----6-----6----6-----6-----6-----------|
G|---7-----7-----7----7-----7-----7---------|
D|-----7-----7----------7-----7-------------|
A|-5----------------5-----------------------|
E|------------------------------------------|

Parte 2
         Am
E|------------------------------------------|
B|-5-----5-----5----5-----5-----5-----------|
G|---5-----5-----5----5-----5-----5---------|
D|-----7-----7----------7-----7-------------|
A|------------------------------------------|
E|-5----------------5-----------------------|

[Segunda parte]

  Dm
Black, black, black and blue

Beat me 'til I'm numb
          Am
Tell the devil I said hey

When you get back to where you're from
 Dm
Mad woman, bad woman,

That's just what you are
               Am
Yeah, you'll smile in my face
               A
Then rip the brakes out my car

[Dedilhado Segunda parte]

Parte 1 de 4
         Dm
E|------------------------------------------|
B|-6-----6-----6----6-----6-----6-----------|
G|---7-----7-----7----7-----7-----7---------|
D|-----7-----7----------7-----7-------------|
A|-5----------------5-----------------------|
E|------------------------------------------|

Parte 2 de 4
         Am
E|------------------------------------------|
B|-5-----5-----5----5-----5-----5-----------|
G|---5-----5-----5----5-----5-----5---------|
D|-----7-----7----------7-----7-------------|
A|------------------------------------------|
E|-5----------------5-----------------------|

Parte 3 de 4
         Dm
E|------------------------------------------|
B|-6-----6-----6----6-----6-----6-----------|
G|---7-----7-----7----7-----7-----7---------|
D|-----7-----7----------7-----7-------------|
A|-5----------------5-----------------------|
E|------------------------------------------|

Parte 4 de 4
         Am               A
E|------------------5-----------------------|
B|-5-----5-----5----5-----------------------|
G|---5-----5-----5--6-----------------------|
D|-----7-----7------7-----------------------|
A|------------------7-----------------------|
E|-5----------------5-----------------------|
                    ↓

[Pré-refrão]

 Dm
Gave you all I had

And you tossed it in the trash
     Am
You tossed it in the trash

yes, you did!
    Dm
To give me all your love is all
                     Bb
I ever asked, 'cause
                      A
What you don't understand is

[Dedilhado Pré-refrão]

Parte 1 de 4
         Dm
E|------------------------------------------|
B|-6-----6-----6----6-----6-----6-----------|
G|---7-----7-----7----7-----7-----7---------|
D|-----7-----7----------7-----7-------------|
A|-5----------------5-----------------------|
E|------------------------------------------|

Parte 2 de 4
         Am
E|------------------------------------------|
B|-5-----5-----5----5-----5-----5-----------|
G|---5-----5-----5----5-----5-----5---------|
D|-----7-----7----------7-----7-------------|
A|------------------------------------------|
E|-5----------------5-----------------------|

Parte 3 de 4
         Dm
E|------------------------------------------|
B|-6-----6-----6----6-----6-----6-----------|
G|---7-----7-----7----7-----7-----7---------|
D|-----7-----7----------7-----7-------------|
A|-5----------------5-----------------------|
E|------------------------------------------|

Parte 4 de 4
         Bb               A
E|-6-6-6-6-6-6-6-6--5\----------------------|
B|-6-6-6-6-6-6-6-6--5\----------------------|
G|-7-7-7-7-7-7-7-7--6\----------------------|
D|-8-8-8-8-8-8-8-8--7\----------------------|
A|-8-8-8-8-8-8-8-8--7\----------------------|
E|-6-6-6-6-6-6-6-6--5\----------------------|
   ↓ ↓ ↓ ↓ ↓ ↓ ↓ ↓  ↓

[Refrão]

                Dm       Bb9  F
I'd catch a grenade for ya
       C             Dm       Bb9  F
Throw my hand on a blade for ya
         C               Dm       Bb9  F
I'd jump in front of a train for ya
         C           Dm       Bb9  F  C
You know I'd do anything for ya

             Bb9                     C
Oh, I would go through all of this pain
        F                 A7        Dm
Take a bullet straight through my brain
 Dm/C         Bb9               A7
Yes, I would die for you, baby

But you won't do the same

[Terceira parte]

Gm
   If my body was on fire
Dm
   Oh, you'd watch me burn

Down in flames
Gm
   You said you loved me, you're a liar
                 A7(9+)      A7(9+)
'Cause you never,       ever,
  A7(9+)          Dm  Bb
ever    did, baby

[Dedilhado final terceira parte]

Parte 3
         Dm
E|------------------------------------------|
B|-6-----6-----6----6-----6-----6-----------|
G|---7-----7-----7----7-----7-----7---------|
D|-----7-----7----------7-----7-------------|
A|-5----------------5-----------------------|
E|------------------------------------------|

Parte 4
         Bb               A
E|-6-6-6-6-6-6-6-6--5\----------------------|
B|-6-6-6-6-6-6-6-6--5\----------------------|
G|-7-7-7-7-7-7-7-7--6\----------------------|
D|-8-8-8-8-8-8-8-8--7\----------------------|
A|-8-8-8-8-8-8-8-8--7\----------------------|
E|-6-6-6-6-6-6-6-6--5\----------------------|
   ↓ ↓ ↓ ↓ ↓ ↓ ↓ ↓  ↓

[Refrão]
     A
But darling,
                      Dm       Bb9  F
I'd still catch a grenade for ya
       C             Dm       Bb9  F
Throw my hand on a blade for ya
         C               Dm       Bb9  F
I'd jump in front of a train for ya
         C           Dm       Bb9  F  C
You know I'd do anything for ya

             Bb9                    C
Oh, I would go through all of this pain
F                 A7
  Take a bullet straight
             Dm
Through my brain
 Dm/C         Bb9              A7
Yes, I would die for you, baby
                          Dm
But you won't do the same
                          Am
No, you won't do the same
                         Dm
You wouldn't do the same
                        Am
Oh, you'd never do the same

Oh, no, no, no

[Dedilhado refrão final]

Parte 1
         Dm
E|------------------------------------------|
B|-6-----6-----6----6-----6-----6-----------|
G|---7-----7-----7----7-----7-----7---------|
D|-----7-----7----------7-----7-------------|
A|-5----------------5-----------------------|
E|------------------------------------------|

Parte 2
         Am
E|------------------------------------------|
B|-5-----5-----5----5-----5-----5-----------|
G|---5-----5-----5----5-----5-----5---------|
D|-----7-----7----------7-----7-------------|
A|------------------------------------------|
E|-5----------------5-----------------------|

Parte 1
         Dm
E|------------------------------------------|
B|-6-----6-----6----6-----6-----6-----------|
G|---7-----7-----7----7-----7-----7---------|
D|-----7-----7----------7-----7-------------|
A|-5----------------5-----------------------|
E|------------------------------------------|

Parte 2
         Am
E|------------------------------------------|
B|-5-----5-----5----5-----5-----5-----------|
G|---5-----5-----5----5-----5-----5---------|
D|-----7-----7----------7-----7-------------|
A|------------------------------------------|
E|-5----------------5-----------------------|

0 comentários

mostrar mais comentários

Conseguiu tocar?

156tocaram4ainda não

Grave um vídeo tocando Grenade e mande pra gente!

00:00 / 00:00
outros vídeos desta música
repetirqualidadeAutomático
Outro vídeos desta música
    00:00 / 00:00
    Capítulos
    • Tocando a música
    • Apresentação / Equipamentos
    • Acordes da primeira parte
    • Tocando primeira parte
    • Dedilhado primeira parte
    • Dedilhado - Parte 1 de 4
    • Dedilhado - Parte 2 de 4
    • Dedilhado - Parte 3 de 4
    • Dedilhado - Parte 4 de 4
    • Acordes pré-refrão
    • Tocando pré-refrão
    • Dedilhado pré-refrão
    • Acordes do refrão
    • Tocando refrão
    • Ritmo do refrão
    • Dicas da música
    • Tocando segundo refrão
    • Acordes terceira parte
    • Tocando terceira parte
    • Ritmo terceira parte
    • Dicas finais
    • Tocando final
    • Encerramento
    OK