Cifra Club

Treasure

Bruno Mars

Tab de baixo: Principal
Introdução

G|--------------------------------------------|
D|--------------------------------------------|
A|--------------------------------------------|
E|-6-6-6-6-6----------------------------------|

Primeira parte (tocar 2x)

Give me your, give me your, give me your...

Parte 1

   T  P T T T  P P T T T  P
G|--------------------------------------------|
D|----6--------3-3--------5-------------------|
A|--------------------------------------------|
E|-4----4-3-1------1-1-3----------------------|

Parte 2

   T T  T  P P 
G|---------5-5--------------------------------|
D|-----------------1--------------------------|
A|---1--3------1h3---3-1----------------------|
E|-3------------------------------------------|

Pré-refrão

Oh ohh oh oh I know that you dont know it...

Parte 1

   T  P T T T  P P T T T  P
G|--------------------------------------------|
D|----6--------3-3--------5-------------------|
A|--------------------------------------------|
E|-4----4-3-1------1-1-3----------------------|

Parte 2

   T T  T  P P 
G|---------5-5--------------------------------|
D|-----------------1--------------------------|
A|---1--3------1h3---3-1----------------------|
E|-3------------------------------------------|

Parte 3

    T  P T T T P P  T T 
G|--------------------------------------------|
D|----6--------3-3----------------------------|
A|--------------------------------------------|
E|-4----4-3-1-------1-1/6-6-6-6---------------|

parte 4

G|--------------------------------------------|
D|--------------------------------------------|
A|-6/13-13-13-13-13-13------------------------|
E|--------------------------------------------|

Refrão

Treasure, that is what you are honey you're...

Parte 1

   T  P T T T  P P T T T  P
G|--------------------------------------------|
D|----6--------3-3--------5-------------------|
A|--------------------------------------------|
E|-4----4-3-1------1-1-3----------------------|

Parte 2

   T T  T  P P 
G|---------5-5--------------------------------|
D|-----------------1--------------------------|
A|---1--3------1h3---3-1----------------------|
E|-3------------------------------------------|

Parte 3

  T  P T T T  P P T T T  P
G|--------------------------------------------|
D|----6--------3-3--------5-------------------|
A|--------------------------------------------|
E|-4----4-3-1------1-1-3----------------------|

Parte 4

   T T  T  P P 
G|---------5-5--------------------------------|
D|-----------------1--------------------------|
A|---1--3------1h3---3-1----------------------|
E|-3------------------------------------------|

Parte 5

   T  P T T T  P P  T
G|--------------------------------------------|
D|----6--------3-3----------------------------|
A|--------------------------------------------|
E|-4----4-3-1------1--------------------------|

Parte 6

   T
G|--------------------------------------------|
D|--------------------8-8-8-8--8-8-8-8--------|
A|--------------------------------------------|
E|-1/6-6-6-6-6-6-6-6--------------------------|

Segunda parte(tocar 2x)

Pretty girl, pretty girl, pretty girl you... 

Parte 1

   T  P T T T  P P T T T  P
G|--------------------------------------------|
D|----6--------3-3--------5-------------------|
A|--------------------------------------------|
E|-4----4-3-1------1-1-3----------------------|


Parte 2

   T T  T  P P 
G|---------5-5--------------------------------|
D|-----------------1--------------------------|
A|---1--3------1h3---3-1----------------------|
E|-3------------------------------------------|

Pré-refrão

Oh ohh oh oh I know that you dont know it...

Parte 1

   T  P T T T  P P T T T  P
G|--------------------------------------------|
D|----6--------3-3--------5-------------------|
A|--------------------------------------------|
E|-4----4-3-1------1-1-3----------------------|

Parte 2

   T T  T  P P 
G|---------5-5--------------------------------|
D|-----------------1--------------------------|
A|---1--3------1h3---3-1----------------------|
E|-3------------------------------------------|

Parte 3

    T  P T T T P P  T T 
G|--------------------------------------------|
D|----6--------3-3----------------------------|
A|--------------------------------------------|
E|-4----4-3-1-------1-1/6-6-6-6---------------|

parte 4

G|--------------------------------------------|
D|--------------------------------------------|
A|-6/13-13-13-13-13-13------------------------|
E|--------------------------------------------|

Refrão

Treasure, that is what you are honey you're...

Parte 1

   T  P T T T  P P T T T  P
G|--------------------------------------------|
D|----6--------3-3--------5-------------------|
A|--------------------------------------------|
E|-4----4-3-1------1-1-3----------------------|

Parte 2

   T T  T  P P 
G|---------5-5--------------------------------|
D|-----------------1--------------------------|
A|---1--3------1h3---3-1----------------------|
E|-3------------------------------------------|

Parte 3

   T  P T T T  P P T T T  P
G|--------------------------------------------|
D|----6--------3-3--------5-------------------|
A|--------------------------------------------|
E|-4----4-3-1------1-1-3----------------------|

Parte 4

   T T  T  P P 
G|---------5-5--------------------------------|
D|-----------------1--------------------------|
A|---1--3------1h3---3-1----------------------|
E|-3------------------------------------------|

Parte 5

   T  P T T T  P P T
G|--------------------------------------------|
D|----6--------3-3----------------------------|
A|--------------------------------------------|
E|-4----4-3-1------1--------------------------|

Parte 6

   T
G|--------------------------------------------|
D|--------------------8-8-8-8--8-8-8-8--------|
A|--------------------------------------------|
E|-1/6-6-6-6-6-6-6-6--------------------------|

Terceira parte 

You are my treasure, you are my treasure...(Só voz-baking vocal)

Parte 1

G|--------------------------------------------|
D|--------------------------------------------|
A|-------------6/13-13-13-13-13-13------------|
E|-1/6-6-6-6-----------------------11/4-------|

Refrão

Treasure, that is what you are honey you're...

Parte 1

   T  P T T T  P P T T T  P
G|--------------------------------------------|
D|----6--------3-3--------5-------------------|
A|--------------------------------------------|
E|-4----4-3-1------1-1-3----------------------|

Parte 2

   T T  T  P P 
G|---------5-5--------------------------------|
D|-----------------1--------------------------|
A|---1--3------1h3---3-1----------------------|
E|-3------------------------------------------|

Parte 3

   T  P T T T  P P T T T  P
G|--------------------------------------------|
D|----6--------3-3--------5-------------------|
A|--------------------------------------------|
E|-4----4-3-1------1-1-3----------------------|

Parte 4

   T T  T  P P 
G|---------5-5--------------------------------|
D|-----------------1--------------------------|
A|---1--3------1h3---3-1----------------------|
E|-3------------------------------------------|

Parte 5

   T  P T T T  P P T
G|--------------------------------------------|
D|----6--------3-3----------------------------|
A|--------------------------------------------|
E|-4----4-3-1------1--------------------------|

Parte 6

   T
G|--------------------------------------------|
D|--------------------8-8-8-8--8-8-8-8--------|
A|--------------------------------------------|
E|-1/6-6-6-6-6-6-6-6--------------------------|

Quarta parte final

Parte 1

   T  P T T T  P P T T T  P
G|--------------------------------------------|
D|----6--------3-3--------5-------------------|
A|--------------------------------------------|
E|-4----4-3-1------1-1-3----------------------|

Parte 2

   T T  T  P P 
G|---------5-5--------------------------------|
D|-----------------1--------------------------|
A|---1--3------1h3---3-1----------------------|
E|-3------------------------------------------|

00:00 / 00:00
Outros vídeos desta música
Repetir
Outros vídeos desta música
Composição de Ari Levine / Bruno Mars / Philip Lawrence / Phredley Brown
Colaboração e revisão:
  • Reginaldo Costa
  • George FB
18.794 exibições

0 comentários

Ver todos os comentários

Conseguiu tocar?

12 Tocaram 0 Ainda não

Grave um vídeo tocando Treasure e nos envie!

Entre para oCifra Club PRO

Tenha acesso a benefícios exclusivos no App e no Site

  • Chega de anúncios

  • Prioridade de compra em lançamentos

  • Mais recursos no app do Afinador

  • Atendimento Prioritário

  • Descontos nos produtos Cifra Club

  • Ajude a produzir mais conteúdo

00:00 / 00:00
Capítulos
  • Início
  • Tocando a Música
  • Ensinando Introdução
  • Tocando Primeira Parte
  • Ensinando Primeira Parte
  • Tocando Pré Refrão
  • Ensinando Pré Refrão
  • Tocando Refrão
  • Ensinando Refrão
  • Tocando Terceira Parte
  • Ensinando Terceira Parte
  • Tocando Quarta Parte
  • Ensinando Quarta Parte
  • Encerramento

Cifra Club Pro

Aproveite o Cifra Club com benefícios exclusivos e sem anúncios
Cifra Club Pro
Aproveite o Cifra Club com benefícios exclusivos e sem anúncios
OK