Enviar cifraEntrar

Eu Me Rendo

Bruno Sene

Cifra: Principal
exibições 140.450
Tom: F
Intro: Dm  F  C  Bb


E|-------------------------------|
B|----6-6-----6-6-----6-6-5-3----|
G|-2-------2-------2----------5--|
D|-------------------------------|
A|-------------------------------|
E|-------------------------------|


E|-------------------------------|
B|----6-6-----6-6-----6-6-5-3----|
G|-2-------2-------2----------5--|
D|-------------------------------|
A|-------------------------------|
E|-------------------------------|


E|-------------------------------|
B|----6-6-----6-6-----6-6-5-3----|
G|----------------------------5--|
D|--5------5------5--------------|
A|-------------------------------|
E|-------------------------------|


E|-------------------------------|
B|----6-6-----6-6-----6-6-5-3----|
G|-3-------3-------3----------5--|
D|-------------------------------|
A|-------------------------------|
E|-------------------------------|


Dm                     F
Eis me aqui, prostrado outra vez
            C                  Bb
Pra tudo entregar,pra tudo entregar
Dm               F
Leva-me perto de ti senhor
           C             Bb
Anseio por ti,anseio por ti
        Dm   F   C  Bb
Eu me rendo
Dm                      F
Enche-me ,da graça e do teu amor
           C             Bb
Sacia meu ser ,sacia meu ser
  Dm               F
Abraça-me, ouve o meu clamor
         C              Bb
Fala pra mim, fala pra mim
      Dm           F
Eu me rendo, eu me rendo
          Gm                   Bb
Pra conhecer-te mais, pra conhecer-te mais

 2x: Bb  F  C

      Bb   F              C
Vento de poder, sopra em meu viver
           Gm               Dm       C
Faz teu querer, faz teu querer, em mim
        Bb    F        C
Como um vendaval sobrenatural
            Gm              Dm       C
Faz teu querer, faz teu querer, em mim


E|-------------------------------|
B|----6-6-----6-6-----6-6-5-3----|
G|-2-------2-------2----------5--|
D|-------------------------------|
A|-------------------------------|
E|-------------------------------|


E|-------------------------------|
B|----6-6-----6-6-----6-6-5-3----|
G|-2-------2-------2----------5--|
D|-------------------------------|
A|-------------------------------|
E|-------------------------------|


E|-------------------------------|
B|----6-6-----6-6-----6-6-5-3----|
G|----------------------------5--|
D|--5------5------5--------------|
A|-------------------------------|
E|-------------------------------|


E|-------------------------------|
B|----6-6-----6-6-----6-6-5-3----|
G|-3-------3-------3----------5--|
D|-------------------------------|
A|-------------------------------|
E|-------------------------------|
  • 1
  • 2
  • 3
  • 4
  • 5
  • 6
  • 7
  • 8
  • 9
  • 10
  • 11
  • 12
    Acordes para:
      Composição: HillsongColaboração e revisão:

      0 comentários

        mostrar mais comentários

        Conseguiu tocar?

        19tocaram0ainda não

        Grave um vídeo tocando Eu Me Rendo e mande pra gente!

        00:00 / 00:00
        outros vídeos desta música
        repetirqualidadeautomática
        • automática
        Outro vídeos desta música
          00:00 / 00:00
          automática
          • automática
          Acordes para:violão e guitarra
          dificuldadeexibiçõescontribuições
          1 versão de Guitar Proformatodownloadscontribuição
          1 versão de Partiturasformatodownloadscontribuição
          fecharplay/pause subir/descer velocidade
            acordes
            fechar
            OK
            Feedback