Cifra Club

Disembodied Part 2

Buckethead

Tab de baixo: Principal
     E  Q.     H           E  Q.     H           E  Q    S S S S Q.      
G||---------------------|---------------------|-------------------------|
D||---------------------|---------------------|-------------------------|
A||---------------------|---------------------|-------------------------|
E||--3--5---------------|--3--5---------------|--3--3----1-1-1-1--------|


  E  Q    S S S S Q.        E  Q.     H           E  Q.     H         
-------------------------|---------------------|---------------------|
-------------------------|---------------------|---------------------|
-------------------------|---------------------|---------------------|
--0--0----1-1-1-1--------|--3--5---------------|--3--5---------------|


  E  Q    S S S S Q.        E  Q    S S S S Q.      
-------------------------|-------------------------|
-------------------------|-------------------------|
-------------------------|-------------------------|
--3--3----1-1-1-1--------|--0--0----1-1-1-1--------|


  S S E  S S E  S S E  S S E     S S E  S S E  S S E  S S E   
------------------------------|------------------------------|
------------------------------|------------------------------|
------------------------------|------------------------------|
--5-5-5--5-5-5--5-5-5--5-5-5--|--5-5-5--5-5-5--5-5-5--5-5-5--|


  E  Q    E  E  E  E  E     E  Q    E  E  E  E  E   
-------------------------|-------------------------|
-------------------------|-------------------------|
-------------------------|-------------------------|
--3--3----1--1--1--1--1--|--1--0----1--1--1--1--1--|


  S S E  S S E  S S E  S S E     S S E  S S E  S S E  S S E   
------------------------------|------------------------------|
------------------------------|------------------------------|
------------------------------|------------------------------|
--5-5-5--5-5-5--5-5-5--5-5-5--|--5-5-5--5-5-5--5-5-5--5-5-5--|


  E  Q    E  E  E  E  E     E  Q    E  E  E  E  E   
-------------------------|-------------------------|
-------------------------|-------------------------|
-------------------------|-------------------------|
--3--3----1--1--1--1--1--|--1--0----1--1--1--1--1--|


  S S E  S S E  S S E  S S E     S S E  S S E  S S E  S S E   
------------------------------|------------------------------|
------------------------------|------------------------------|
------------------------------|------------------------------|
--5-5-5--5-5-5--5-5-5--5-5-5--|--5-5-5--5-5-5--5-5-5--5-5-5--|


  E  Q    E  E  E  E  E     E  Q    E  E  E  E  E     Q    Q    Q    Q     
-------------------------|-------------------------|----------------------|
-------------------------|-------------------------|----------------------|
-------------------------|-------------------------|----------------------|
--3--3----1--1--1--1--1--|--1--0----1--1--1--1--1--|--5---------1---------|


  Q    Q    Q    Q       Q    Q    Q    Q       Q    Q    Q    Q     
----------------------|----------------------|----------------------|
----------------------|----------------------|----------------------|
----------------------|----------------------|----------------------|
--3---------5---------|--5---------1---------|--3---------5---------|


  Q    E  E  Q    E  E     Q    E  E  Q    E  E     Q    E  E  Q    E  E   
------------------------|------------------------|------------------------|
------------------------|------------------------|------------------------|
------------------------|------------------------|------------------------|
--5----5--5--1----1--1--|--3----3--3--5----5--5--|--5----5--5--1----1--1--|


  Q    E  E  Q    E  E     W                   W                 
------------------------|-------------------|-------------------|
------------------------|-------------------|-------------------|
------------------------|--5----------------|--3----------------|
--3----3--3--5----5--5--|-------------------|-------------------|


  W                   E  Q    Q    Q    E     W                 
-------------------|-----------------------|-------------------|
-------------------|-----------------------|-------------------|
--1----------------|-----1----1----0----0--|--5----------------|
-------------------|-----------------------|-------------------|


  W                   W                   E  Q    Q    Q    E   
-------------------|-------------------|-----------------------|
-------------------|-------------------|-----------------------|
--3----------------|--1----------------|-----1----1----0----0--|
-------------------|-------------------|-----------------------|


  E  Q    Q    E  Q       S S E  S S E  S S E  S S E   
-----------------------|------------------------------|
-----------------------|------------------------------|
-----5----5----7-------|------------------------------|
-----------------------|--5-5-5--5-5-5--5-5-5--5-5-5--|


  S S E  S S E  S S E  S S E     E  Q    E  E  E  E  E   
------------------------------|-------------------------|
------------------------------|-------------------------|
------------------------------|-------------------------|
--5-5-5--5-5-5--5-5-5--5-5-5--|--3--3----1--1--1--1--1--|


  E  Q    E  E  E  E  E     S S E  S S E  S S E  S S E   
-------------------------|------------------------------|
-------------------------|------------------------------|
-------------------------|------------------------------|
--1--0----1--1--1--1--1--|--5-5-5--5-5-5--5-5-5--5-5-5--|


  S S E  S S E  S S E  S S E                                                   
------------------------------|-----|-----|-----|-----|-----|-----|-----|-----|
------------------------------|-----|-----|-----|-----|-----|-----|-----|-----|
------------------------------|-----|-----|-----|-----|-----|-----|-----|-----|
--5-5-5--5-5-5--5-5-5--5-5-5--|-----|-----|-----|-----|-----|-----|-----|-----|


-----|-----|-----|-----|-----|-----|-----|-----|-----|-----|-----|-----|-----||
-----|-----|-----|-----|-----|-----|-----|-----|-----|-----|-----|-----|-----||
-----|-----|-----|-----|-----|-----|-----|-----|-----|-----|-----|-----|-----||
-----|-----|-----|-----|-----|-----|-----|-----|-----|-----|-----|-----|-----||




Duration Legend
---------------
W - whole
H - half
Q - quarter
E - 8th
S - 16th
T - 32nd
X - 64th
. - note dotted
|-n-|  - n-tuplets


Tablature Legend
----------------
L - tied note
x - dead note
g - grace note
(n) - ghost note
> - accentuded note
NH - natural harmonic
AH - artificial harmonic
TH - tapped harmonic
SH - semi harmonic
PH - pitch harmonic
h - hammer on
p - pull off
b - bend
br - bendRelease
pb - preBend
pbr - preBendRelease
brb - bendReleaseBend
\n/ - tremolo bar dip
\n - tremolo bar dive
-/n - tremolo bar Release up
/n\ - tremolo bar inverted dip
/n - tremolo bar return
-\n - tremolo bar Release down
S - shift slide
s - legato slide
/ -  slide into from below or out of upwards
\ -  slide into from above or out of downwards
~ - vibrato
W - wide vibrato
tr - trill
TP - tremolo picking
T - tapping
S - slap
P - pop
< - fade in
^ - brush up
v - brush down
00:00 / 00:00
Outros vídeos desta música
Repetir
Outros vídeos desta música
Composição de Buckethead
Colaboração e revisão:
  • zero one
52 exibições

0 comentários

Ver todos os comentários

Conseguiu tocar?

0 Tocaram 0 Ainda não

Grave um vídeo tocando Disembodied Part 2 e nos envie!

00:00 / 00:00

Cifra Club Pro

Aproveite o Cifra Club com benefícios exclusivos e sem anúncios
Cifra Club Pro
Aproveite o Cifra Club com benefícios exclusivos e sem anúncios
OK