Cifra Club

Aprenda

Hard Time Killing Floor

Buddy Guy

Cifra: Principal (violão e guitarra)
tom: A#
Intro:                                                          2x
e)---------|---------|--------------------------||---------|-----------|-------------------------
b)--7-7-4--|-7-7-4---|--------------------------||---------|-----------|-------------------------
g)---------|-------6-|-6-6----------------------||---------|-----------|--8---8---8--------------
d)---------|---------|-----6/8/6-6-4----4-6/4---||---4-4/6-|-6/8/6-4---|-8-8-7-7-6-6-4---------6-
a)---------|---------|----------------6-------6-||-6-------|---------6-|----------------4/5/6--6-
e)---------|---------|--------------------------||---------|-----------|-----------------------4-

A#
Hard times are here,
everywhere you go.
These times are harder than
they ever been before.

Hum, hum, hum
d)-6/8/6-4---
a)---------6-

Hum, hum, hum
d)-6/8/6-4---
a)---------6-

Hum, hum, hum
d)-6/8/6-4---
a)---------6-

Hum, hum, hum
g)--8---8---8--------------
d)-8-8-7-7-6-6-5---------6-
a)----------------4/5/6--6-
e)-----------------------4-


A#
You know people are drifting
from door to door.
But they can find no heaven,
I don't care where they go.

Hum, hum, hum
d)-6/8/6-4---
a)---------6-

Hum, hum, hum
d)-6/8/6-4---
a)---------6-

Hum, hum, hum
d)-6/8/6-4---
a)---------6-

Hum, hum, hum
g)--8---8---8--------------
d)-8-8-7-7-6-6-5---------6-
a)----------------4/5/6--6-
e)-----------------------4-

Etc...

A#
Hear me tell you people, just before I go 
These hard times will kill you just 
dry long so 
Well, you hear me singin' my lonesome song 
These hard times can last us so very long 
If I ever get off this 
killin' floor 
I'll never get down this low no more 
No-no, no-no, I'll never get down this low no more 
And you say you had money, you better be sure 
'Cause these hard times will drive you from door to door 
Sing this song and I ain't gonna sing no more 
Sing this song and I ain't gonna sing no more 
These hard times will drive you from door to door
Composição de Skip James
Colaboração e revisão:
  • Eduardo Dequech
3.009 exibições
    • ½ Tom
    • A
    • Bb
    • B
    • C
    • Db
    • D
    • Eb
    • E
    • F
    • F#
    • G
    • Ab
  • Adicionar à lista

    0 comentários

    Ver todos os comentários

    Conseguiu tocar?

    0 Tocaram 0 Ainda não

    Grave um vídeo tocando Hard Time Killing Floor e nos envie!

    00:00 / 00:00
    outros vídeos desta música
    repetir qualidade Automático
    Outros vídeos desta música
    00:00 / 00:00
    Automático

    Cifra Club Pro

    Aproveite o Cifra Club com benefícios exclusivos e sem anúncios
    Cifra Club Pro
    Aproveite o Cifra Club com benefícios exclusivos e sem anúncios
    OK