Cifra Club

Aprenda

Time To Remember

Budgie

Cifra: Principal (violão e guitarra)
tom: G
Tabbed by: *.S
Email: *
i hope nige, ru, mark and callum

Tuning: normal
Intro riff

e|-----------------------------------------------------------------------------|
B|-----------------------------------------------------------------------------|
G|-------------------------0-----------------------------0---------------------|
D|--------------------4-----------------------------4--------------------------|
A|-----3--/--5---5------------------5-/-3----3---------------------------------|
E|-----3--/--5-----------------------5-/-3-------------------------------------|
      Slide up
e|---12---------7----------------------------12--------------------------------|
B|-------------------------7--------------------------------7------------------|
G|--------------------------------------------------------------------7--------|
D|-----------------------------------------------------------------------------|
A|-----------------------------------------------------------------------------|
E|-----------------------------------------------------------------------------|
Pitch harmonics
e|-----------------------------------------------------------------------------|
B|-----------------------------------------------------------------------------|
G|-----------------------------------------------------------------------------|
D|------------------------------------9-9-9-7-9------9-------------------------|
A|----3-2-3-2----------------------7-7-7-5-7-------7---------------------------|
E|-----------------3-2-3-2-----------------------------------------------------|
Chorus
e|----------------------------------------------------------------------14-x---14---x---14/////--|
B|----------------------------------------------------------------------14-x---14---x---14/////--|
G|----------------------------------------------------------------------14-x-14---x---14/////----|
D|---9--9----7----5---------------------------------------------------12-x-12-x---12/////--------|
A|---7---7--/-5--/-3--------5---------------5--7--5----------------------------------------------|
E|----------------------------3-------5\7-----------------7--------------------------------------|

e|-----------------------------------------------------------15-----------15-15---15----|
B|------------------------12----15-----------15--12-----full----------full---full-full--|
G|--14------14--12-----------full-------------------------------------------------------|
D|--full------------------------bend----------------------------------------------------|
A|-bend---------------------------------------------------------------------------------|
E|--------------------------------------------------------------------------------------|
solo
e|-12--------------------------------------------------------------------------|
B|--------15----------12-------------------------------------------------------|
G|--------full----------------14---12------------------------------------------|
D|-------bend---------------------------14-------------------------------------|
A|-------------------------------------half bend-------------------------------|
E|-----------------------------------------------------------------------------|

e|---17----15----------------------------------------------------------------------------------|
B|--full------------17-----17--15--------------------------------------------------------------|
G|------------------------------------17----17--15---------------------------------------------|
D|-------------------------------------------------------17--17---15---------------------------|
A|---------------------------------------------------------------------------17----------------|
E|------------------------------------------------------------------------------------18---15--|

e|--22-22-22-22-19-19-19-19-17-17-17-17-15-15-15-15-12-12-12-12-----------------------------------------|
B|-----------------------------------------------------------------------------------------15-15-15-15--|
G|------------------------------------------------------------------------------------------------------|
D|------------------------------------------------------------------------------------------------------|
A|------------------------------------------------------------------------------------------------------|
E|------------------------------------------------------------------------------------------------------|

e|---------------------------------------------------------------------------------------------------------------------|
B|--12-12-12-12--------------------------------------------------------------------------------------------------------|
G|-------------------14-14-14-14-12-12-12-12---------------------------------------------------------------------------|
D|------------------------------------------------------14-14-14-14-12-12----------------------------------------------|
A|---------------------------------------------------------------------------------14-14-12-12-------------------------|
E|-----------------------------------------------------------------------------------------------------15-15-12-12-12--|
| /  slide up
| \  slide down
| h  hammer-on
| p  pull-off
| ~  vibrato
| +  harmonic
Composição de Burke Shelley / John Thomas
454 exibições
    • ½ Tom
    • A
    • Bb
    • B
    • C
    • Db
    • D
    • Eb
    • E
    • F
    • F#
    • G
    • Ab
  • Adicionar à lista

    0 comentários

    Ver todos os comentários

    Conseguiu tocar?

    0 Tocaram 0 Ainda não

    Grave um vídeo tocando Time To Remember e nos envie!

    00:00 / 00:00
    outros vídeos desta música
    repetir qualidade Automático
    Outros vídeos desta música
    00:00 / 00:00
    Automático

    Cifra Club Pro

    Aproveite o Cifra Club com benefícios exclusivos e sem anúncios
    Cifra Club Pro
    Aproveite o Cifra Club com benefícios exclusivos e sem anúncios
    OK