Cifra Club

Another Day

Built To Spill

Cifra: Principal (violão e guitarra)
Selo Cifra Club: esta cifra foi revisada para atender aos critérios oficiais da nossa Equipe de Qualidade.
tom: C#m
E|E|----------------------------------------------------------||
Built to Spill - Another Day
Tabbed by Miamasa
E|E|----------------------------------------------------------||

A E D

      A         E         D
E|----------------------------------------------------|
B|----------------------------------------------------|
G|----------------------------------------------------|
D|----------------------------------------------------|
A|----------------------------------------------------|
E|--2/5-----7\5-4-----5\4-2-------/10-----------------|


A   E            D  
I can't explain anything to anyone
A                   E             D
Don't believe that nothing isn't true
E         A                D                    
And you know you're not the one who gets to decide
E                         A         D
What is right and what is right for you


A      E        D
And I wake up everyday just the same
A          E                D
Somewhere between stars and sand
E           A          D
And I was made from material that could never last
E        A                              D
An obsolescence that no one would have planned


A       E            D
And I know there's something deep inside
A                E                D
No one's gotta see it to make it real
E       A            D
And I don't expect anyone to read my mind
E             A        D
But when you don't I'm disappointed every time
E       A             D
And if somehow you make it through you're gonna find
E                   A          D
I just want you to know how I feel




Solo Part 1:

    C             Ab             Eb 
E|E|E|----------------------------------------------------------||----------|
B|E|E|----------------------------------------------------------||----------|
G|------0--1--0--------0-1-0--------0-1-0-1-0------0---0---0----------|
D|----------------1--------------1---------------1---1---1---1--------|
A|--3E|E|----------------------------------------------------------||-------|
E|E|E|----------------------------------------------------------||----------|

    C             Ab             Eb 
E|E|E|----------------------------------------------------------||---|
B|E|E|----------------------------------------------------------||---|
G|------0--1--0--------0-1-0----------3-1-0-0---1-0------------|
D|----------------1--------------1------------------1----------|
A|--3E|E|----------------------------------------------------------|||
E|E|E|----------------------------------------------------------||---|
 
    C             Ab             Eb           Bb
E|E|E|----------------------------------------------------------||---|
B|E|E|----------------------------------------------------------||---| 
G|------0--1--0--------0-1-0----------0-1-0---0-1-3-1-0--------|
D|----------------1--------------1-----------------------------|
A|--3E|E|----------------------------------------------------------|||
E|E|E|----------------------------------------------------------||---|

    C             Ab             Eb         Bb
E|E|E|----------------------------------------------------------||---|
B|E|E|----------------------------------------------------------||---| 
G|------0--1--0--------1---0----------1-0-3-1-0----------------|
D|----------------1--------------1--------------3---1----------|
A|--3E|E|----------------------------------------------------------|||
E|E|E|----------------------------------------------------------||---|



Solo Part 2:


    A   (E) F          G          D         C   B
E|--5----7--8----------10---------------------------------------|
B|--5----9--10---------12---------------------------------------|
G|--6----9--10---------12---------7--7--7---5---4---------------|     x4
D|--7----9--10---------12---------------------------------------|
A|--7----7--8----------10---------5--5--5---3---2---------------|
E|--5E|E|----------------------------------------------------------||-|

    E       F          G          D         C   B
E|--7-------8----------10---------------------------------------|
B|--9-------10---------12---------------------------------------|
G|--9-------10---------12---------7--7--7---5---4---------------|     x2
D|--9-------10---------12---------------------------------------|
A|--7-------8----------10---------5--5--5---3---2---------------|
E|E|E|----------------------------------------------------------||----|

    A   (E) F          G          D         C   B
E|--5----7--8----------10---------------------------------------|
B|--5----9--10---------12---------------------------------------|
G|--6----9--10---------12---------7--7--7---5---4---------------|
D|--7----9--10---------12---------------------------------------|
A|--7----7--8----------10---------5--5--5---3---2---------------|
E|--5E|E|----------------------------------------------------------||-|

    A   (E) F          G       
E|--5----7--8----------10---------|
B|--5----9--10---------12---------|
G|--6----9--10---------12---------|
D|--7----9--10---------12---------|
A|--7----7--8----------10---------|
E|--5-----------------------------|


Solo Part 3 (slide):

A E D x2

    E                  A                D     (Ending varies)           
E|----------------------------------------------------|
B|-----------9---------------14------14\------7---7---|
G|--7--/--9-----9--9--/--14------14--14\--7-7---7-----| x4
D|--7--/--9-----9--9--/--14------14--14\--7-7---7-----|
A|----------------------------------------------------|
E|----------------------------------------------------|



A        E         D
And our choices fade into the emptiness
A            E                    D
Right before we start to fade ourselves
E                A             D
And now it seems like the only thing on my mind
E            A               D
Is getting all these things off my chest before I die
E           A                 D
And going back to where the earth is soft to try to find
E                  A            D 
Somewhere we can bury all our mistakes
Outros vídeos desta música
    6 exibições
      • ½ Tom
      • Am
      • Bbm
      • Bm
      • Cm
      • C#m
      • Dm
      • Ebm
      • Em
      • Fm
      • F#m
      • Gm
      • G#m
    • Adicionar à lista

    Afinação da cifra

    Afinador online

      0 comentários

      Ver todos os comentários

      Conseguiu tocar?

      0Tocaram0Ainda não

      Grave um vídeo tocando Another Day e nos envie!

      Toque também

      1. Imagem do artista PavementHarness Your Hopes Pavement
      2. Imagem do artista Modest MouseFloat On Modest Mouse
      3. Imagem do artista The Halo BendersSnowfall The Halo Benders
      4. Imagem do artista Ugly CasanovaParasites Ugly Casanova

      Entre para o Cifra Club PRO

      Tenha acesso a benefícios exclusivos no App e no Site

      • Chega de anúncios

      • Badges exclusivas

      • Mais recursos no app do Afinador

      • Atendimento Prioritário

      • Aumente seu limite de lista

      • Ajude a produzir mais conteúdo

      Cifra Club Pro

      Aproveite o Cifra Club com benefícios exclusivos e sem anúncios
      Cifra Club Pro
      Aproveite o Cifra Club com benefícios exclusivos e sem anúncios
      Ops (: Contenido disponible sólo en portugués.
      OK