Cifra Club

Carry The Zero

Built To Spill

Cifra: Simplificada (violão e guitarra)
Selo Cifra Club: esta cifra foi revisada para atender aos critérios oficiais da nossa Equipe de Qualidade.
tom: E
 A7M     E           B7            F#m
 I'm not knocking your want to carry that home
 A7M     E           B7                F#m
Took it with you when you moved and got it broke
 A7M        E          B7           F#m
Found the pieces, we counted them all alone
 A7M        E     B7               F#m
Didn't add up, forgot to carry a zero

[Solo]

E|------------------------------------|
B|-2/9~----9\7--7-7h9-7-5--7p5-7--\2--|
G|------------------------------------|
D|------------------------------------|
A|------------------------------------|
E|------------------------------------|

E|---------------------------------------------|
B|-2/9----9/10----9-10-9-7/9--9/10\9---7~\5--2-|
G|---------------------------------------------|
D|---------------------------------------------|
A|---------------------------------------------|
E|---------------------------------------------|

E|------------------------------------|
B|-2/5--5/7--9/10--9-9-7-9-9/10-9-9/12|
G|------------------------------------|
D|------------------------------------|
A|------------------------------------|
E|------------------------------------|

E|------------------------------------|
B|-12p10--9-10-9-10\5--9----5---------|
G|------------------------------------|
D|------------------------------------|
A|------------------------------------|
E|------------------------------------|

E|------------------------------------|
B|-5h7p5-4--7-5-7--5/7--7/9--10-------|
G|------------------------------------|
D|------------------------------------|
A|------------------------------------|
E|------------------------------------|

E|------------------------------------|
B|-9\5--7--4--7-5-7--5/7--7/9--10-----|
G|------------------------------------|
D|------------------------------------|
A|------------------------------------|
E|------------------------------------|

 A7M      E       B7         F#m
I can't be your apologist very long
 A7M        E              B7            F#m
I'm surprised that you'd want to carry that on
 A7M          E            B7                F#m
Count your blemishes you can't they're all gone
 A7M      E           B7                      F#m
I can't see your response putting them back on
               A7M            E
Like they're waiting for your guard to fall
    B7             F#m
So they can see it all
               A7M
And you're so occupied with what
E                 B7
Other persons are occupied with
F#m
And vice versa

     A7M     E                       B7
So you've become what you thought was dumb
                  F#m
A fraction of the sum
              A7M                    E
Yeah you've become, yeah you have become
                  B7
A fraction of the sum
                   F#m
The middle and the front
               A7M
And now it's coming back
                E
Hasn't come too far
       A7M
I was trying to help but
                     E
I guess I pushed too hard
            A7M
And now we can't even touch it
                    E
'Fraid it'll fall apart
Outros vídeos desta música
    363 exibições
      • ½ Tom
      • A
      • Bb
      • B
      • C
      • Db
      • D
      • Eb
      • E
      • F
      • F#
      • G
      • Ab
    • Adicionar à lista

    Afinação da cifra

    Afinador online

      0 comentários

      Ver todos os comentários

      Conseguiu tocar?

      1Tocaram0Ainda não

      Grave um vídeo tocando Carry The Zero e nos envie!

      Toque também

      1. Imagem do artista PavementHarness Your Hopes Pavement
      2. Imagem do artista Modest MouseWeve Got Everything Modest Mouse
      3. Imagem do artista The Halo BendersSnowfall The Halo Benders
      4. Imagem do artista Stephen MalkmusForever 28 Stephen Malkmus

      Entre para o Cifra Club PRO

      Tenha acesso a benefícios exclusivos no App e no Site

      • Chega de anúncios

      • Badges exclusivas

      • Mais recursos no app do Afinador

      • Atendimento Prioritário

      • Aumente seu limite de lista

      • Ajude a produzir mais conteúdo

      Cifra Club Pro

      Aproveite o Cifra Club com benefícios exclusivos e sem anúncios
      Cifra Club Pro
      Aproveite o Cifra Club com benefícios exclusivos e sem anúncios
      Ops (: Contenido disponible sólo en portugués.
      OK